ISO-10303-21;
HEADER;
/****************************************************************
 * Generated by software with PDE/Lib inside                    *
 * PDElib Version v51a, created Thu 12/14/2006                  *
 * International Technegroup Inc. (www.iti-oh.com)              *
 ****************************************************************/
FILE_DESCRIPTION((''),'2;1');
FILE_NAME('\\\\Server1\\ufficio tecnico\\cad3d\\PNEUMATICA\\Ing1-1\\pne bbzp e derivate\\BBZS1\\BBZS1-DN0508-SAL.stp','2009-08-27T16:44:34',('malp-m'),(''),'Autodesk Inventor 2008','Autodesk Inventor 2008','');
FILE_SCHEMA(('AUTOMOTIVE_DESIGN { 1 0 10303 214 1 1 1 1 }'));
ENDSEC;
DATA;
#5=APPLICATION_CONTEXT('automotive design');
#6=APPLICATION_PROTOCOL_DEFINITION('International Standard','automotive_design',2001,#5);
#7=PRODUCT_CONTEXT('',#5,'mechanical');
#8=PRODUCT('BBZS1-DN0508-SAL','BBZS1-DN0508-SAL',$,(#7));
#9=PRODUCT_RELATED_PRODUCT_CATEGORY('part',$,(#8));
#10=PRODUCT_DEFINITION_FORMATION('',$,#8);
#11=PRODUCT_DEFINITION_CONTEXT('part definition',#5,'design');
#12=PRODUCT_DEFINITION('',$,#10,#11);
#18=(NAMED_UNIT(*)PLANE_ANGLE_UNIT()SI_UNIT($,.RADIAN.));
#19=DIMENSIONAL_EXPONENTS(0.0,0.0,0.0,0.0,0.0,0.0,0.0);
#20=PLANE_ANGLE_MEASURE_WITH_UNIT(PLANE_ANGLE_MEASURE(0.017453292500000),#18);
#24=(CONVERSION_BASED_UNIT('DEGREE',#20)NAMED_UNIT(#19)PLANE_ANGLE_UNIT());
#28=(NAMED_UNIT(*)SI_UNIT($,.STERADIAN.)SOLID_ANGLE_UNIT());
#32=(LENGTH_UNIT()NAMED_UNIT(*)SI_UNIT(.MILLI.,.METRE.));
#34=UNCERTAINTY_MEASURE_WITH_UNIT(LENGTH_MEASURE(0.010000000000000),#32,'DISTANCE_ACCURACY_VALUE','');
#36=(GEOMETRIC_REPRESENTATION_CONTEXT(3)GLOBAL_UNCERTAINTY_ASSIGNED_CONTEXT((#34))GLOBAL_UNIT_ASSIGNED_CONTEXT((#24,#28,#32))REPRESENTATION_CONTEXT('None','None'));
#37=AXIS2_PLACEMENT_3D('',#38,#39,#40);
#38=CARTESIAN_POINT('',(0.0,0.0,0.0));
#39=DIRECTION('',(0.0,0.0,1.0));
#40=DIRECTION('',(1.0,0.0,0.0));
#41=SHAPE_REPRESENTATION('',(#37,#346,#612),#36);
#42=PRODUCT_DEFINITION_SHAPE('','',#12);
#43=SHAPE_DEFINITION_REPRESENTATION(#42,#41);
#44=APPLICATION_CONTEXT('automotive design');
#45=APPLICATION_PROTOCOL_DEFINITION('International Standard','automotive_design',2001,#44);
#46=PRODUCT_CONTEXT('',#44,'mechanical');
#47=PRODUCT('COR-INF-L-SAL-DN50','COR-INF-L-SAL-DN50',$,(#46));
#48=PRODUCT_RELATED_PRODUCT_CATEGORY('part',$,(#47));
#49=PRODUCT_DEFINITION_FORMATION('',$,#47);
#50=PRODUCT_DEFINITION_CONTEXT('part definition',#44,'design');
#51=PRODUCT_DEFINITION('',$,#49,#50);
#57=(NAMED_UNIT(*)PLANE_ANGLE_UNIT()SI_UNIT($,.RADIAN.));
#58=DIMENSIONAL_EXPONENTS(0.0,0.0,0.0,0.0,0.0,0.0,0.0);
#59=PLANE_ANGLE_MEASURE_WITH_UNIT(PLANE_ANGLE_MEASURE(0.017453292500000),#57);
#63=(CONVERSION_BASED_UNIT('DEGREE',#59)NAMED_UNIT(#58)PLANE_ANGLE_UNIT());
#67=(NAMED_UNIT(*)SI_UNIT($,.STERADIAN.)SOLID_ANGLE_UNIT());
#71=(LENGTH_UNIT()NAMED_UNIT(*)SI_UNIT(.MILLI.,.METRE.));
#73=UNCERTAINTY_MEASURE_WITH_UNIT(LENGTH_MEASURE(0.010000000000000),#71,'DISTANCE_ACCURACY_VALUE','');
#75=(GEOMETRIC_REPRESENTATION_CONTEXT(3)GLOBAL_UNCERTAINTY_ASSIGNED_CONTEXT((#73))GLOBAL_UNIT_ASSIGNED_CONTEXT((#63,#67,#71))REPRESENTATION_CONTEXT('None','None'));
#76=AXIS2_PLACEMENT_3D('',#77,#78,#79);
#77=CARTESIAN_POINT('',(0.0,0.0,0.0));
#78=DIRECTION('',(0.0,0.0,1.0));
#79=DIRECTION('',(1.0,0.0,0.0));
#80=SHAPE_REPRESENTATION('',(#76),#75);
#81=PRODUCT_DEFINITION_SHAPE('','',#51);
#82=SHAPE_DEFINITION_REPRESENTATION(#81,#80);
#88=(NAMED_UNIT(*)PLANE_ANGLE_UNIT()SI_UNIT($,.RADIAN.));
#89=DIMENSIONAL_EXPONENTS(0.0,0.0,0.0,0.0,0.0,0.0,0.0);
#90=PLANE_ANGLE_MEASURE_WITH_UNIT(PLANE_ANGLE_MEASURE(0.017453292500000),#88);
#94=(CONVERSION_BASED_UNIT('DEGREE',#90)NAMED_UNIT(#89)PLANE_ANGLE_UNIT());
#98=(NAMED_UNIT(*)SI_UNIT($,.STERADIAN.)SOLID_ANGLE_UNIT());
#102=(LENGTH_UNIT()NAMED_UNIT(*)SI_UNIT(.MILLI.,.METRE.));
#104=UNCERTAINTY_MEASURE_WITH_UNIT(LENGTH_MEASURE(0.000001000000000),#102,'DISTANCE_ACCURACY_VALUE','');
#106=(GEOMETRIC_REPRESENTATION_CONTEXT(3)GLOBAL_UNCERTAINTY_ASSIGNED_CONTEXT((#104))GLOBAL_UNIT_ASSIGNED_CONTEXT((#94,#98,#102))REPRESENTATION_CONTEXT('','3D'));
#107=CARTESIAN_POINT('',(0.0,54.0,0.0));
#108=DIRECTION('',(0.0,0.0,1.0));
#109=DIRECTION('',(-1.0,0.0,0.0));
#110=AXIS2_PLACEMENT_3D('',#107,#108,#109);
#111=CYLINDRICAL_SURFACE('',#110,25.399999999999999);
#112=CARTESIAN_POINT('',(25.399999999999999,54.0,85.0));
#113=VERTEX_POINT('',#112);
#114=CARTESIAN_POINT('',(0.0,54.0,85.0));
#115=DIRECTION('',(0.0,0.0,-1.0));
#116=DIRECTION('',(-1.0,0.0,0.0));
#117=AXIS2_PLACEMENT_3D('',#114,#115,#116);
#118=CIRCLE('',#117,25.399999999999999);
#119=EDGE_CURVE('',#113,#113,#118,.T.);
#120=ORIENTED_EDGE('',*,*,#119,.T.);
#121=EDGE_LOOP('',(#120));
#122=FACE_OUTER_BOUND('',#121,.T.);
#123=CARTESIAN_POINT('',(25.399999999999999,54.0,36.842943693467284));
#124=VERTEX_POINT('',#123);
#125=CARTESIAN_POINT('',(0.0,54.0,36.842943693467284));
#126=DIRECTION('',(0.0,0.0,-1.0));
#127=DIRECTION('',(-1.0,0.0,0.0));
#128=AXIS2_PLACEMENT_3D('',#125,#126,#127);
#129=CIRCLE('',#128,25.399999999999999);
#130=EDGE_CURVE('',#124,#124,#129,.T.);
#131=ORIENTED_EDGE('',*,*,#130,.F.);
#132=EDGE_LOOP('',(#131));
#133=FACE_BOUND('',#132,.T.);
#134=ADVANCED_FACE('',(#122,#133),#111,.T.);
#135=CARTESIAN_POINT('',(0.0,54.0,85.0));
#136=DIRECTION('',(0.0,0.0,-1.0));
#137=DIRECTION('',(-1.0,0.0,0.0));
#138=AXIS2_PLACEMENT_3D('',#135,#136,#137);
#139=PLANE('',#138);
#140=ORIENTED_EDGE('',*,*,#119,.F.);
#141=EDGE_LOOP('',(#140));
#142=FACE_OUTER_BOUND('',#141,.T.);
#143=ADVANCED_FACE('',(#142),#139,.F.);
#144=CARTESIAN_POINT('',(-12.699999999999875,0.0,0.0));
#145=DIRECTION('',(0.0,-1.0,0.0));
#146=DIRECTION('',(0.0,0.0,-1.0));
#147=AXIS2_PLACEMENT_3D('',#144,#145,#146);
#148=PLANE('',#147);
#149=CARTESIAN_POINT('',(-25.399999999999750,0.0,0.0));
#150=VERTEX_POINT('',#149);
#151=CARTESIAN_POINT('',(0.0,0.0,0.0));
#152=DIRECTION('',(0.0,1.0,0.0));
#153=DIRECTION('',(-1.0,0.0,0.0));
#154=AXIS2_PLACEMENT_3D('',#151,#152,#153);
#155=CIRCLE('',#154,25.399999999999750);
#156=EDGE_CURVE('',#150,#150,#155,.T.);
#157=ORIENTED_EDGE('',*,*,#156,.F.);
#158=EDGE_LOOP('',(#157));
#159=FACE_OUTER_BOUND('',#158,.T.);
#160=ADVANCED_FACE('',(#159),#148,.T.);
#161=CARTESIAN_POINT('',(0.0,10.0,0.0));
#162=DIRECTION('',(0.0,1.0,0.0));
#163=DIRECTION('',(-1.0,0.0,0.0));
#164=AXIS2_PLACEMENT_3D('',#161,#162,#163);
#165=CYLINDRICAL_SURFACE('',#164,25.399999999999924);
#166=CARTESIAN_POINT('',(-25.400000000000098,20.000000000000007,0.0));
#167=VERTEX_POINT('',#166);
#168=CARTESIAN_POINT('',(0.0,20.000000000000007,0.0));
#169=DIRECTION('',(0.0,1.0,0.0));
#170=DIRECTION('',(-1.0,0.0,0.0));
#171=AXIS2_PLACEMENT_3D('',#168,#169,#170);
#172=CIRCLE('',#171,25.400000000000098);
#173=EDGE_CURVE('',#167,#167,#172,.T.);
#174=ORIENTED_EDGE('',*,*,#173,.F.);
#175=EDGE_LOOP('',(#174));
#176=FACE_OUTER_BOUND('',#175,.T.);
#177=ORIENTED_EDGE('',*,*,#156,.T.);
#178=EDGE_LOOP('',(#177));
#179=FACE_BOUND('',#178,.T.);
#180=ADVANCED_FACE('',(#176,#179),#165,.T.);
#181=CARTESIAN_POINT('',(-30.450000000000053,20.000000000000007,0.0));
#182=DIRECTION('',(0.0,-1.0,0.0));
#183=DIRECTION('',(0.0,0.0,-1.0));
#184=AXIS2_PLACEMENT_3D('',#181,#182,#183);
#185=PLANE('',#184);
#186=CARTESIAN_POINT('',(-35.500000000000007,20.000000000000007,0.0));
#187=VERTEX_POINT('',#186);
#188=CARTESIAN_POINT('',(0.0,20.000000000000007,0.0));
#189=DIRECTION('',(0.0,1.0,0.0));
#190=DIRECTION('',(-1.0,0.0,0.0));
#191=AXIS2_PLACEMENT_3D('',#188,#189,#190);
#192=CIRCLE('',#191,35.500000000000007);
#193=EDGE_CURVE('',#187,#187,#192,.T.);
#194=ORIENTED_EDGE('',*,*,#193,.F.);
#195=EDGE_LOOP('',(#194));
#196=FACE_OUTER_BOUND('',#195,.T.);
#197=ORIENTED_EDGE('',*,*,#173,.T.);
#198=EDGE_LOOP('',(#197));
#199=FACE_BOUND('',#198,.T.);
#200=ADVANCED_FACE('',(#196,#199),#185,.T.);
#201=CARTESIAN_POINT('',(0.0,21.000000000000014,0.0));
#202=DIRECTION('',(0.0,1.0,0.0));
#203=DIRECTION('',(0.0,0.0,1.0));
#204=AXIS2_PLACEMENT_3D('',#201,#202,#203);
#205=TOROIDAL_SURFACE('',#204,35.500000000000000,1.0);
#206=CARTESIAN_POINT('',(-36.500000000000000,21.000000000000007,0.0));
#207=VERTEX_POINT('',#206);
#208=CARTESIAN_POINT('',(0.0,21.000000000000007,0.0));
#209=DIRECTION('',(0.0,1.0,0.0));
#210=DIRECTION('',(-1.0,0.0,0.0));
#211=AXIS2_PLACEMENT_3D('',#208,#209,#210);
#212=CIRCLE('',#211,36.500000000000000);
#213=EDGE_CURVE('',#207,#207,#212,.T.);
#214=ORIENTED_EDGE('',*,*,#213,.F.);
#215=EDGE_LOOP('',(#214));
#216=FACE_OUTER_BOUND('',#215,.T.);
#217=ORIENTED_EDGE('',*,*,#193,.T.);
#218=EDGE_LOOP('',(#217));
#219=FACE_BOUND('',#218,.T.);
#220=ADVANCED_FACE('',(#216,#219),#205,.T.);
#221=CARTESIAN_POINT('',(0.0,24.554803014245010,0.0));
#222=DIRECTION('',(0.0,1.0,0.0));
#223=DIRECTION('',(-1.0,0.0,0.0));
#224=AXIS2_PLACEMENT_3D('',#221,#222,#223);
#225=CYLINDRICAL_SURFACE('',#224,36.500000000000000);
#226=CARTESIAN_POINT('',(-36.500000000000000,28.109606028490013,0.0));
#227=VERTEX_POINT('',#226);
#228=CARTESIAN_POINT('',(0.0,28.109606028490013,0.0));
#229=DIRECTION('',(0.0,1.0,0.0));
#230=DIRECTION('',(-1.0,0.0,0.0));
#231=AXIS2_PLACEMENT_3D('',#228,#229,#230);
#232=CIRCLE('',#231,36.500000000000000);
#233=EDGE_CURVE('',#227,#227,#232,.T.);
#234=ORIENTED_EDGE('',*,*,#233,.F.);
#235=EDGE_LOOP('',(#234));
#236=FACE_OUTER_BOUND('',#235,.T.);
#237=ORIENTED_EDGE('',*,*,#213,.T.);
#238=EDGE_LOOP('',(#237));
#239=FACE_BOUND('',#238,.T.);
#240=ADVANCED_FACE('',(#236,#239),#225,.T.);
#241=CARTESIAN_POINT('',(0.0,54.000000000000021,0.0));
#242=DIRECTION('',(0.0,0.0,1.0));
#243=DIRECTION('',(1.0,0.0,0.0));
#244=AXIS2_PLACEMENT_3D('',#241,#242,#243);
#245=SPHERICAL_SURFACE('',#244,44.750000000000007);
#246=ORIENTED_EDGE('',*,*,#130,.T.);
#247=EDGE_LOOP('',(#246));
#248=FACE_OUTER_BOUND('',#247,.T.);
#249=ORIENTED_EDGE('',*,*,#233,.T.);
#250=EDGE_LOOP('',(#249));
#251=FACE_BOUND('',#250,.T.);
#252=CARTESIAN_POINT('',(-36.500000000000000,79.890393971510008,0.0));
#253=VERTEX_POINT('',#252);
#254=CARTESIAN_POINT('',(0.0,79.890393971510008,0.0));
#255=DIRECTION('',(0.0,1.0,0.0));
#256=DIRECTION('',(-1.0,0.0,0.0));
#257=AXIS2_PLACEMENT_3D('',#254,#255,#256);
#258=CIRCLE('',#257,36.500000000000000);
#259=EDGE_CURVE('',#253,#253,#258,.T.);
#260=ORIENTED_EDGE('',*,*,#259,.F.);
#261=EDGE_LOOP('',(#260));
#262=FACE_BOUND('',#261,.T.);
#263=ADVANCED_FACE('',(#248,#251,#262),#245,.T.);
#264=CARTESIAN_POINT('',(0.0,83.717256517222609,0.0));
#265=DIRECTION('',(0.0,1.0,0.0));
#266=DIRECTION('',(-1.0,0.0,0.0));
#267=AXIS2_PLACEMENT_3D('',#264,#265,#266);
#268=CYLINDRICAL_SURFACE('',#267,36.500000000000000);
#269=CARTESIAN_POINT('',(-36.500000000000000,87.544119062935238,0.0));
#270=VERTEX_POINT('',#269);
#271=CARTESIAN_POINT('',(0.0,87.544119062935238,0.0));
#272=DIRECTION('',(0.0,1.0,0.0));
#273=DIRECTION('',(-1.0,0.0,0.0));
#274=AXIS2_PLACEMENT_3D('',#271,#272,#273);
#275=CIRCLE('',#274,36.500000000000000);
#276=EDGE_CURVE('',#270,#270,#275,.T.);
#277=ORIENTED_EDGE('',*,*,#276,.F.);
#278=EDGE_LOOP('',(#277));
#279=FACE_OUTER_BOUND('',#278,.T.);
#280=ORIENTED_EDGE('',*,*,#259,.T.);
#281=EDGE_LOOP('',(#280));
#282=FACE_BOUND('',#281,.T.);
#283=ADVANCED_FACE('',(#279,#282),#268,.T.);
#284=CARTESIAN_POINT('',(0.0,88.272059531467619,0.0));
#285=DIRECTION('',(0.0,1.0,0.0));
#286=DIRECTION('',(-1.0,0.0,0.0));
#287=AXIS2_PLACEMENT_3D('',#284,#285,#286);
#288=CONICAL_SURFACE('',#287,38.500000000000007,70.000000000000256);
#289=CARTESIAN_POINT('',(-40.500000000000007,89.000000000000028,0.0));
#290=VERTEX_POINT('',#289);
#291=CARTESIAN_POINT('',(0.0,89.000000000000028,0.0));
#292=DIRECTION('',(0.0,1.0,0.0));
#293=DIRECTION('',(-1.0,0.0,0.0));
#294=AXIS2_PLACEMENT_3D('',#291,#292,#293);
#295=CIRCLE('',#294,40.500000000000007);
#296=EDGE_CURVE('',#290,#290,#295,.T.);
#297=ORIENTED_EDGE('',*,*,#296,.F.);
#298=EDGE_LOOP('',(#297));
#299=FACE_OUTER_BOUND('',#298,.T.);
#300=ORIENTED_EDGE('',*,*,#276,.T.);
#301=EDGE_LOOP('',(#300));
#302=FACE_BOUND('',#301,.T.);
#303=ADVANCED_FACE('',(#299,#302),#288,.T.);
#304=CARTESIAN_POINT('',(0.0,90.500000000000000,0.0));
#305=DIRECTION('',(0.0,1.0,0.0));
#306=DIRECTION('',(-1.0,0.0,0.0));
#307=AXIS2_PLACEMENT_3D('',#304,#305,#306);
#308=CYLINDRICAL_SURFACE('',#307,40.500000000000007);
#309=CARTESIAN_POINT('',(-40.500000000000007,92.0,0.0));
#310=VERTEX_POINT('',#309);
#311=CARTESIAN_POINT('',(0.0,92.0,0.0));
#312=DIRECTION('',(0.0,1.0,0.0));
#313=DIRECTION('',(-1.0,0.0,0.0));
#314=AXIS2_PLACEMENT_3D('',#311,#312,#313);
#315=CIRCLE('',#314,40.500000000000007);
#316=EDGE_CURVE('',#310,#310,#315,.T.);
#317=ORIENTED_EDGE('',*,*,#316,.F.);
#318=EDGE_LOOP('',(#317));
#319=FACE_OUTER_BOUND('',#318,.T.);
#320=ORIENTED_EDGE('',*,*,#296,.T.);
#321=EDGE_LOOP('',(#320));
#322=FACE_BOUND('',#321,.T.);
#323=ADVANCED_FACE('',(#319,#322),#308,.T.);
#324=CARTESIAN_POINT('',(-20.250000000000004,92.0,0.0));
#325=DIRECTION('',(0.0,1.0,0.0));
#326=DIRECTION('',(0.0,0.0,1.0));
#327=AXIS2_PLACEMENT_3D('',#324,#325,#326);
#328=PLANE('',#327);
#329=ORIENTED_EDGE('',*,*,#316,.T.);
#330=EDGE_LOOP('',(#329));
#331=FACE_OUTER_BOUND('',#330,.T.);
#332=ADVANCED_FACE('',(#331),#328,.T.);
#333=CLOSED_SHELL('',(#134,#143,#160,#180,#200,#220,#240,#263,#283,#303,#323,#332));
#334=MANIFOLD_SOLID_BREP('',#333);
#335=COLOUR_RGB('Default',0.752941012382507,0.752941012382507,0.752941012382507);
#336=FILL_AREA_STYLE_COLOUR('Default',#335);
#337=FILL_AREA_STYLE('Default',(#336));
#338=SURFACE_STYLE_FILL_AREA(#337);
#339=SURFACE_SIDE_STYLE('Default',(#338));
#340=SURFACE_STYLE_USAGE(.BOTH.,#339);
#341=PRESENTATION_STYLE_ASSIGNMENT((#340));
#342=STYLED_ITEM('',(#341),#334);
#343=MECHANICAL_DESIGN_GEOMETRIC_PRESENTATION_REPRESENTATION('',(#342,#609),#36);
#344=ADVANCED_BREP_SHAPE_REPRESENTATION('ABSR',(#334),#75);
#345=SHAPE_REPRESENTATION_RELATIONSHIP('SRR','None',#344,#80);
#346=AXIS2_PLACEMENT_3D('',#347,#348,#349);
#347=CARTESIAN_POINT('',(-6.098181E-022,-1.335765E-023,3.108624E-014));
#348=DIRECTION('',(6.196147E-117,1.232595E-031,1.000000000000000));
#349=DIRECTION('',(1.000000000000000,1.509882E-024,1.476995E-048));
#350=NEXT_ASSEMBLY_USAGE_OCCURRENCE('COR-INF-L-SAL-DN50.8:1','COR-INF-L-SAL-DN50.8:1','COR-INF-L-SAL-DN50.8:1',#12,#51,'COR-INF-L-SAL-DN50.8:1');
#351=PRODUCT_DEFINITION_SHAPE('COR-INF-L-SAL-DN50.8:1','COR-INF-L-SAL-DN50.8:1',#350);
#352=ITEM_DEFINED_TRANSFORMATION('COR-INF-L-SAL-DN50.8:1','COR-INF-L-SAL-DN50.8:1',#76,#346);
#356=(REPRESENTATION_RELATIONSHIP('COR-INF-L-SAL-DN50.8:1','COR-INF-L-SAL-DN50.8:1',#80,#41)REPRESENTATION_RELATIONSHIP_WITH_TRANSFORMATION(#352)SHAPE_REPRESENTATION_RELATIONSHIP());
#357=CONTEXT_DEPENDENT_SHAPE_REPRESENTATION(#356,#351);
#358=APPLICATION_CONTEXT('automotive design');
#359=APPLICATION_PROTOCOL_DEFINITION('International Standard','automotive_design',2001,#358);
#360=PRODUCT_CONTEXT('',#358,'mechanical');
#361=PRODUCT('calotta BBZS1 050','calotta BBZS1 050',$,(#360));
#362=PRODUCT_RELATED_PRODUCT_CATEGORY('part',$,(#361));
#363=PRODUCT_DEFINITION_FORMATION('',$,#361);
#364=PRODUCT_DEFINITION_CONTEXT('part definition',#358,'design');
#365=PRODUCT_DEFINITION('',$,#363,#364);
#371=(NAMED_UNIT(*)PLANE_ANGLE_UNIT()SI_UNIT($,.RADIAN.));
#372=DIMENSIONAL_EXPONENTS(0.0,0.0,0.0,0.0,0.0,0.0,0.0);
#373=PLANE_ANGLE_MEASURE_WITH_UNIT(PLANE_ANGLE_MEASURE(0.017453292500000),#371);
#377=(CONVERSION_BASED_UNIT('DEGREE',#373)NAMED_UNIT(#372)PLANE_ANGLE_UNIT());
#381=(NAMED_UNIT(*)SI_UNIT($,.STERADIAN.)SOLID_ANGLE_UNIT());
#385=(LENGTH_UNIT()NAMED_UNIT(*)SI_UNIT(.MILLI.,.METRE.));
#387=UNCERTAINTY_MEASURE_WITH_UNIT(LENGTH_MEASURE(0.010000000000000),#385,'DISTANCE_ACCURACY_VALUE','');
#389=(GEOMETRIC_REPRESENTATION_CONTEXT(3)GLOBAL_UNCERTAINTY_ASSIGNED_CONTEXT((#387))GLOBAL_UNIT_ASSIGNED_CONTEXT((#377,#381,#385))REPRESENTATION_CONTEXT('None','None'));
#390=AXIS2_PLACEMENT_3D('',#391,#392,#393);
#391=CARTESIAN_POINT('',(0.0,0.0,0.0));
#392=DIRECTION('',(0.0,0.0,1.0));
#393=DIRECTION('',(1.0,0.0,0.0));
#394=SHAPE_REPRESENTATION('',(#390),#389);
#395=PRODUCT_DEFINITION_SHAPE('','',#365);
#396=SHAPE_DEFINITION_REPRESENTATION(#395,#394);
#402=(NAMED_UNIT(*)PLANE_ANGLE_UNIT()SI_UNIT($,.RADIAN.));
#403=DIMENSIONAL_EXPONENTS(0.0,0.0,0.0,0.0,0.0,0.0,0.0);
#404=PLANE_ANGLE_MEASURE_WITH_UNIT(PLANE_ANGLE_MEASURE(0.017453292500000),#402);
#408=(CONVERSION_BASED_UNIT('DEGREE',#404)NAMED_UNIT(#403)PLANE_ANGLE_UNIT());
#412=(NAMED_UNIT(*)SI_UNIT($,.STERADIAN.)SOLID_ANGLE_UNIT());
#416=(LENGTH_UNIT()NAMED_UNIT(*)SI_UNIT(.MILLI.,.METRE.));
#418=UNCERTAINTY_MEASURE_WITH_UNIT(LENGTH_MEASURE(0.000001000000000),#416,'DISTANCE_ACCURACY_VALUE','');
#420=(GEOMETRIC_REPRESENTATION_CONTEXT(3)GLOBAL_UNCERTAINTY_ASSIGNED_CONTEXT((#418))GLOBAL_UNIT_ASSIGNED_CONTEXT((#408,#412,#416))REPRESENTATION_CONTEXT('','3D'));
#421=CARTESIAN_POINT('',(0.0,189.802743893159660,0.0));
#422=DIRECTION('',(0.0,1.0,0.0));
#423=DIRECTION('',(0.0,0.0,1.0));
#424=AXIS2_PLACEMENT_3D('',#421,#422,#423);
#425=TOROIDAL_SURFACE('',#424,26.999999999999822,5.0);
#426=CARTESIAN_POINT('',(0.0,194.793006785574080,27.311891430776420));
#427=VERTEX_POINT('',#426);
#428=CARTESIAN_POINT('',(0.0,194.793006785574080,0.0));
#429=DIRECTION('',(0.0,1.0,0.0));
#430=DIRECTION('',(0.0,0.0,1.0));
#431=AXIS2_PLACEMENT_3D('',#428,#429,#430);
#432=CIRCLE('',#431,27.311891430776420);
#433=EDGE_CURVE('',#427,#427,#432,.T.);
#434=ORIENTED_EDGE('',*,*,#433,.F.);
#435=EDGE_LOOP('',(#434));
#436=FACE_OUTER_BOUND('',#435,.T.);
#437=CARTESIAN_POINT('',(0.0,189.802743893159660,31.999999999999822));
#438=VERTEX_POINT('',#437);
#439=CARTESIAN_POINT('',(0.0,189.802743893159660,0.0));
#440=DIRECTION('',(0.0,1.0,0.0));
#441=DIRECTION('',(0.0,0.0,1.0));
#442=AXIS2_PLACEMENT_3D('',#439,#440,#441);
#443=CIRCLE('',#442,31.999999999999822);
#444=EDGE_CURVE('',#438,#438,#443,.T.);
#445=ORIENTED_EDGE('',*,*,#444,.T.);
#446=EDGE_LOOP('',(#445));
#447=FACE_BOUND('',#446,.T.);
#448=ADVANCED_FACE('',(#436,#447),#425,.T.);
#449=CARTESIAN_POINT('',(0.0,195.646503392785890,0.0));
#450=DIRECTION('',(0.0,-1.0,0.0));
#451=DIRECTION('',(0.0,0.0,1.0));
#452=AXIS2_PLACEMENT_3D('',#449,#450,#451);
#453=CONICAL_SURFACE('',#452,13.655945715387880,86.423665625002528);
#454=ORIENTED_EDGE('',*,*,#433,.T.);
#455=EDGE_LOOP('',(#454));
#456=FACE_OUTER_BOUND('',#455,.T.);
#457=ADVANCED_FACE('',(#456),#453,.T.);
#458=CARTESIAN_POINT('',(0.0,4.884981E-014,20.249999999999972));
#459=DIRECTION('',(0.0,-1.0,0.0));
#460=DIRECTION('',(0.0,0.0,-1.0));
#461=AXIS2_PLACEMENT_3D('',#458,#459,#460);
#462=PLANE('',#461);
#463=CARTESIAN_POINT('',(0.0,9.769963E-014,40.499999999999943));
#464=VERTEX_POINT('',#463);
#465=CARTESIAN_POINT('',(0.0,1.065814E-013,0.0));
#466=DIRECTION('',(0.0,1.0,0.0));
#467=DIRECTION('',(0.0,0.0,1.0));
#468=AXIS2_PLACEMENT_3D('',#465,#466,#467);
#469=CIRCLE('',#468,40.499999999999943);
#470=EDGE_CURVE('',#464,#464,#469,.T.);
#471=ORIENTED_EDGE('',*,*,#470,.F.);
#472=EDGE_LOOP('',(#471));
#473=FACE_OUTER_BOUND('',#472,.T.);
#474=ADVANCED_FACE('',(#473),#462,.T.);
#475=CARTESIAN_POINT('',(0.0,1.500000000000021,0.0));
#476=DIRECTION('',(0.0,1.0,0.0));
#477=DIRECTION('',(0.0,0.0,1.0));
#478=AXIS2_PLACEMENT_3D('',#475,#476,#477);
#479=CYLINDRICAL_SURFACE('',#478,40.499999999999943);
#480=CARTESIAN_POINT('',(0.0,2.999999999999918,40.499999999999943));
#481=VERTEX_POINT('',#480);
#482=CARTESIAN_POINT('',(0.0,2.999999999999901,0.0));
#483=DIRECTION('',(0.0,1.0,0.0));
#484=DIRECTION('',(0.0,0.0,1.0));
#485=AXIS2_PLACEMENT_3D('',#482,#483,#484);
#486=CIRCLE('',#485,40.499999999999943);
#487=EDGE_CURVE('',#481,#481,#486,.T.);
#488=ORIENTED_EDGE('',*,*,#487,.F.);
#489=EDGE_LOOP('',(#488));
#490=FACE_OUTER_BOUND('',#489,.T.);
#491=ORIENTED_EDGE('',*,*,#470,.T.);
#492=EDGE_LOOP('',(#491));
#493=FACE_BOUND('',#492,.T.);
#494=ADVANCED_FACE('',(#490,#493),#479,.T.);
#495=CARTESIAN_POINT('',(0.0,4.455880937064727,0.0));
#496=DIRECTION('',(0.0,-1.0,0.0));
#497=DIRECTION('',(0.0,0.0,1.0));
#498=AXIS2_PLACEMENT_3D('',#495,#496,#497);
#499=CONICAL_SURFACE('',#498,36.499999999999943,70.000000000000156);
#500=CARTESIAN_POINT('',(0.0,5.911761874129518,32.499999999999936));
#501=VERTEX_POINT('',#500);
#502=CARTESIAN_POINT('',(0.0,5.911761874129518,0.0));
#503=DIRECTION('',(0.0,1.0,0.0));
#504=DIRECTION('',(0.0,0.0,1.0));
#505=AXIS2_PLACEMENT_3D('',#502,#503,#504);
#506=CIRCLE('',#505,32.499999999999936);
#507=EDGE_CURVE('',#501,#501,#506,.T.);
#508=ORIENTED_EDGE('',*,*,#507,.F.);
#509=EDGE_LOOP('',(#508));
#510=FACE_OUTER_BOUND('',#509,.T.);
#511=ORIENTED_EDGE('',*,*,#487,.T.);
#512=EDGE_LOOP('',(#511));
#513=FACE_BOUND('',#512,.T.);
#514=ADVANCED_FACE('',(#510,#513),#499,.T.);
#515=CARTESIAN_POINT('',(0.0,8.455880937064642,0.0));
#516=DIRECTION('',(0.0,1.0,0.0));
#517=DIRECTION('',(0.0,0.0,1.0));
#518=AXIS2_PLACEMENT_3D('',#515,#516,#517);
#519=CYLINDRICAL_SURFACE('',#518,32.500000000000064);
#520=CARTESIAN_POINT('',(0.0,10.999999999999766,32.500000000000185));
#521=VERTEX_POINT('',#520);
#522=CARTESIAN_POINT('',(0.0,10.999999999999766,0.0));
#523=DIRECTION('',(0.0,1.0,0.0));
#524=DIRECTION('',(0.0,0.0,1.0));
#525=AXIS2_PLACEMENT_3D('',#522,#523,#524);
#526=CIRCLE('',#525,32.500000000000185);
#527=EDGE_CURVE('',#521,#521,#526,.T.);
#528=ORIENTED_EDGE('',*,*,#527,.F.);
#529=EDGE_LOOP('',(#528));
#530=FACE_OUTER_BOUND('',#529,.T.);
#531=ORIENTED_EDGE('',*,*,#507,.T.);
#532=EDGE_LOOP('',(#531));
#533=FACE_BOUND('',#532,.T.);
#534=ADVANCED_FACE('',(#530,#533),#519,.T.);
#535=CARTESIAN_POINT('',(0.0,10.999999999999801,35.000000000000540));
#536=DIRECTION('',(0.0,-1.0,0.0));
#537=DIRECTION('',(0.0,0.0,-1.0));
#538=AXIS2_PLACEMENT_3D('',#535,#536,#537);
#539=PLANE('',#538);
#540=CARTESIAN_POINT('',(0.0,10.999999999999837,37.500000000000895));
#541=VERTEX_POINT('',#540);
#542=CARTESIAN_POINT('',(0.0,10.999999999999837,0.0));
#543=DIRECTION('',(0.0,1.0,0.0));
#544=DIRECTION('',(0.0,0.0,1.0));
#545=AXIS2_PLACEMENT_3D('',#542,#543,#544);
#546=CIRCLE('',#545,37.500000000000895);
#547=EDGE_CURVE('',#541,#541,#546,.T.);
#548=ORIENTED_EDGE('',*,*,#547,.F.);
#549=EDGE_LOOP('',(#548));
#550=FACE_OUTER_BOUND('',#549,.T.);
#551=ORIENTED_EDGE('',*,*,#527,.T.);
#552=EDGE_LOOP('',(#551));
#553=FACE_BOUND('',#552,.T.);
#554=ADVANCED_FACE('',(#550,#553),#539,.T.);
#555=CARTESIAN_POINT('',(0.0,17.499999999999787,0.0));
#556=DIRECTION('',(0.0,1.0,0.0));
#557=DIRECTION('',(0.0,0.0,1.0));
#558=AXIS2_PLACEMENT_3D('',#555,#556,#557);
#559=CYLINDRICAL_SURFACE('',#558,37.500000000000888);
#560=CARTESIAN_POINT('',(0.0,23.999999999999702,37.500000000000881));
#561=VERTEX_POINT('',#560);
#562=CARTESIAN_POINT('',(0.0,23.999999999999702,0.0));
#563=DIRECTION('',(0.0,1.0,0.0));
#564=DIRECTION('',(0.0,0.0,1.0));
#565=AXIS2_PLACEMENT_3D('',#562,#563,#564);
#566=CIRCLE('',#565,37.500000000000881);
#567=EDGE_CURVE('',#561,#561,#566,.T.);
#568=ORIENTED_EDGE('',*,*,#567,.F.);
#569=EDGE_LOOP('',(#568));
#570=FACE_OUTER_BOUND('',#569,.T.);
#571=ORIENTED_EDGE('',*,*,#547,.T.);
#572=EDGE_LOOP('',(#571));
#573=FACE_BOUND('',#572,.T.);
#574=ADVANCED_FACE('',(#570,#573),#559,.T.);
#575=CARTESIAN_POINT('',(0.0,26.749999999999758,0.0));
#576=DIRECTION('',(0.0,-1.0,0.0));
#577=DIRECTION('',(0.0,0.0,1.0));
#578=AXIS2_PLACEMENT_3D('',#575,#576,#577);
#579=CONICAL_SURFACE('',#578,34.750000000000263,45.000000000005649);
#580=CARTESIAN_POINT('',(0.0,29.499999999999851,31.999999999999645));
#581=VERTEX_POINT('',#580);
#582=CARTESIAN_POINT('',(0.0,29.499999999999851,0.0));
#583=DIRECTION('',(0.0,1.0,0.0));
#584=DIRECTION('',(0.0,0.0,1.0));
#585=AXIS2_PLACEMENT_3D('',#582,#583,#584);
#586=CIRCLE('',#585,31.999999999999645);
#587=EDGE_CURVE('',#581,#581,#586,.T.);
#588=ORIENTED_EDGE('',*,*,#587,.F.);
#589=EDGE_LOOP('',(#588));
#590=FACE_OUTER_BOUND('',#589,.T.);
#591=ORIENTED_EDGE('',*,*,#567,.T.);
#592=EDGE_LOOP('',(#591));
#593=FACE_BOUND('',#592,.T.);
#594=ADVANCED_FACE('',(#590,#593),#579,.T.);
#595=CARTESIAN_POINT('',(0.0,109.651371946579760,0.0));
#596=DIRECTION('',(0.0,1.0,0.0));
#597=DIRECTION('',(0.0,0.0,1.0));
#598=AXIS2_PLACEMENT_3D('',#595,#596,#597);
#599=CYLINDRICAL_SURFACE('',#598,31.999999999999737);
#600=ORIENTED_EDGE('',*,*,#444,.F.);
#601=EDGE_LOOP('',(#600));
#602=FACE_OUTER_BOUND('',#601,.T.);
#603=ORIENTED_EDGE('',*,*,#587,.T.);
#604=EDGE_LOOP('',(#603));
#605=FACE_BOUND('',#604,.T.);
#606=ADVANCED_FACE('',(#602,#605),#599,.T.);
#607=CLOSED_SHELL('',(#448,#457,#474,#494,#514,#534,#554,#574,#594,#606));
#608=MANIFOLD_SOLID_BREP('',#607);
#609=STYLED_ITEM('',(#341),#608);
#610=ADVANCED_BREP_SHAPE_REPRESENTATION('ABSR',(#608),#389);
#611=SHAPE_REPRESENTATION_RELATIONSHIP('SRR','None',#610,#394);
#612=AXIS2_PLACEMENT_3D('',#613,#614,#615);
#613=CARTESIAN_POINT('',(-3.054156E-022,91.999999999999915,3.108624E-014));
#614=DIRECTION('',(-4.078315E-055,1.232595E-031,1.0));
#615=DIRECTION('',(1.0,0.0,4.078315E-055));
#616=NEXT_ASSEMBLY_USAGE_OCCURRENCE('calotta BBZS1 050:1','calotta BBZS1 050:1','calotta BBZS1 050:1',#12,#365,'calotta BBZS1 050:1');
#617=PRODUCT_DEFINITION_SHAPE('calotta BBZS1 050:1','calotta BBZS1 050:1',#616);
#618=ITEM_DEFINED_TRANSFORMATION('calotta BBZS1 050:1','calotta BBZS1 050:1',#390,#612);
#622=(REPRESENTATION_RELATIONSHIP('calotta BBZS1 050:1','calotta BBZS1 050:1',#394,#41)REPRESENTATION_RELATIONSHIP_WITH_TRANSFORMATION(#618)SHAPE_REPRESENTATION_RELATIONSHIP());
#623=CONTEXT_DEPENDENT_SHAPE_REPRESENTATION(#622,#617);
ENDSEC;
END-ISO-10303-21;
