ISO-10303-21;
HEADER;
/****************************************************************
 * Generated by software with PDE/Lib inside                    *
 * PDElib Version v51a, created Thu 12/14/2006                  *
 * International Technegroup Inc. (www.iti-oh.com)              *
 ****************************************************************/
FILE_DESCRIPTION((''),'2;1');
FILE_NAME('\\\\Server1\\ufficio tecnico\\cad3d\\PNEUMATICA\\Ing1-1\\pne bbzp e derivate\\BBZS1\\BBZS1-DN050-SAL.stp','2009-08-27T16:45:32',('malp-m'),(''),'Autodesk Inventor 2008','Autodesk Inventor 2008','');
FILE_SCHEMA(('AUTOMOTIVE_DESIGN { 1 0 10303 214 1 1 1 1 }'));
ENDSEC;
DATA;
#5=APPLICATION_CONTEXT('automotive design');
#6=APPLICATION_PROTOCOL_DEFINITION('International Standard','automotive_design',2001,#5);
#7=PRODUCT_CONTEXT('',#5,'mechanical');
#8=PRODUCT('BBZS1-DN050-SAL','BBZS1-DN050-SAL',$,(#7));
#9=PRODUCT_RELATED_PRODUCT_CATEGORY('part',$,(#8));
#10=PRODUCT_DEFINITION_FORMATION('',$,#8);
#11=PRODUCT_DEFINITION_CONTEXT('part definition',#5,'design');
#12=PRODUCT_DEFINITION('',$,#10,#11);
#18=(NAMED_UNIT(*)PLANE_ANGLE_UNIT()SI_UNIT($,.RADIAN.));
#19=DIMENSIONAL_EXPONENTS(0.0,0.0,0.0,0.0,0.0,0.0,0.0);
#20=PLANE_ANGLE_MEASURE_WITH_UNIT(PLANE_ANGLE_MEASURE(0.017453292500000),#18);
#24=(CONVERSION_BASED_UNIT('DEGREE',#20)NAMED_UNIT(#19)PLANE_ANGLE_UNIT());
#28=(NAMED_UNIT(*)SI_UNIT($,.STERADIAN.)SOLID_ANGLE_UNIT());
#32=(LENGTH_UNIT()NAMED_UNIT(*)SI_UNIT(.MILLI.,.METRE.));
#34=UNCERTAINTY_MEASURE_WITH_UNIT(LENGTH_MEASURE(0.010000000000000),#32,'DISTANCE_ACCURACY_VALUE','');
#36=(GEOMETRIC_REPRESENTATION_CONTEXT(3)GLOBAL_UNCERTAINTY_ASSIGNED_CONTEXT((#34))GLOBAL_UNIT_ASSIGNED_CONTEXT((#24,#28,#32))REPRESENTATION_CONTEXT('None','None'));
#37=AXIS2_PLACEMENT_3D('',#38,#39,#40);
#38=CARTESIAN_POINT('',(0.0,0.0,0.0));
#39=DIRECTION('',(0.0,0.0,1.0));
#40=DIRECTION('',(1.0,0.0,0.0));
#41=SHAPE_REPRESENTATION('',(#37,#380,#646),#36);
#42=PRODUCT_DEFINITION_SHAPE('','',#12);
#43=SHAPE_DEFINITION_REPRESENTATION(#42,#41);
#44=APPLICATION_CONTEXT('automotive design');
#45=APPLICATION_PROTOCOL_DEFINITION('International Standard','automotive_design',2001,#44);
#46=PRODUCT_CONTEXT('',#44,'mechanical');
#47=PRODUCT('COR-INF-L-SAL-DN50','COR-INF-L-SAL-DN50',$,(#46));
#48=PRODUCT_RELATED_PRODUCT_CATEGORY('part',$,(#47));
#49=PRODUCT_DEFINITION_FORMATION('',$,#47);
#50=PRODUCT_DEFINITION_CONTEXT('part definition',#44,'design');
#51=PRODUCT_DEFINITION('',$,#49,#50);
#57=(NAMED_UNIT(*)PLANE_ANGLE_UNIT()SI_UNIT($,.RADIAN.));
#58=DIMENSIONAL_EXPONENTS(0.0,0.0,0.0,0.0,0.0,0.0,0.0);
#59=PLANE_ANGLE_MEASURE_WITH_UNIT(PLANE_ANGLE_MEASURE(0.017453292500000),#57);
#63=(CONVERSION_BASED_UNIT('DEGREE',#59)NAMED_UNIT(#58)PLANE_ANGLE_UNIT());
#67=(NAMED_UNIT(*)SI_UNIT($,.STERADIAN.)SOLID_ANGLE_UNIT());
#71=(LENGTH_UNIT()NAMED_UNIT(*)SI_UNIT(.MILLI.,.METRE.));
#73=UNCERTAINTY_MEASURE_WITH_UNIT(LENGTH_MEASURE(0.010000000000000),#71,'DISTANCE_ACCURACY_VALUE','');
#75=(GEOMETRIC_REPRESENTATION_CONTEXT(3)GLOBAL_UNCERTAINTY_ASSIGNED_CONTEXT((#73))GLOBAL_UNIT_ASSIGNED_CONTEXT((#63,#67,#71))REPRESENTATION_CONTEXT('None','None'));
#76=AXIS2_PLACEMENT_3D('',#77,#78,#79);
#77=CARTESIAN_POINT('',(0.0,0.0,0.0));
#78=DIRECTION('',(0.0,0.0,1.0));
#79=DIRECTION('',(1.0,0.0,0.0));
#80=SHAPE_REPRESENTATION('',(#76),#75);
#81=PRODUCT_DEFINITION_SHAPE('','',#51);
#82=SHAPE_DEFINITION_REPRESENTATION(#81,#80);
#88=(NAMED_UNIT(*)PLANE_ANGLE_UNIT()SI_UNIT($,.RADIAN.));
#89=DIMENSIONAL_EXPONENTS(0.0,0.0,0.0,0.0,0.0,0.0,0.0);
#90=PLANE_ANGLE_MEASURE_WITH_UNIT(PLANE_ANGLE_MEASURE(0.017453292500000),#88);
#94=(CONVERSION_BASED_UNIT('DEGREE',#90)NAMED_UNIT(#89)PLANE_ANGLE_UNIT());
#98=(NAMED_UNIT(*)SI_UNIT($,.STERADIAN.)SOLID_ANGLE_UNIT());
#102=(LENGTH_UNIT()NAMED_UNIT(*)SI_UNIT(.MILLI.,.METRE.));
#104=UNCERTAINTY_MEASURE_WITH_UNIT(LENGTH_MEASURE(0.000001000000000),#102,'DISTANCE_ACCURACY_VALUE','');
#106=(GEOMETRIC_REPRESENTATION_CONTEXT(3)GLOBAL_UNCERTAINTY_ASSIGNED_CONTEXT((#104))GLOBAL_UNIT_ASSIGNED_CONTEXT((#94,#98,#102))REPRESENTATION_CONTEXT('','3D'));
#107=CARTESIAN_POINT('',(0.0,54.500000000000000,0.0));
#108=DIRECTION('',(0.0,0.0,1.0));
#109=DIRECTION('',(-1.0,0.0,0.0));
#110=AXIS2_PLACEMENT_3D('',#107,#108,#109);
#111=CYLINDRICAL_SURFACE('',#110,26.0);
#112=CARTESIAN_POINT('',(26.0,54.500000000000000,85.0));
#113=VERTEX_POINT('',#112);
#114=CARTESIAN_POINT('',(0.0,54.500000000000000,85.0));
#115=DIRECTION('',(0.0,0.0,-1.0));
#116=DIRECTION('',(-1.0,0.0,0.0));
#117=AXIS2_PLACEMENT_3D('',#114,#115,#116);
#118=CIRCLE('',#117,26.0);
#119=EDGE_CURVE('',#113,#113,#118,.T.);
#120=ORIENTED_EDGE('',*,*,#119,.T.);
#121=EDGE_LOOP('',(#120));
#122=FACE_OUTER_BOUND('',#121,.T.);
#123=CARTESIAN_POINT('',(2.384848003542322,28.609606028490020,36.422005710833673));
#124=VERTEX_POINT('',#123);
#125=CARTESIAN_POINT('',(-2.384848003542322,28.609606028490020,36.422005710833673));
#126=VERTEX_POINT('',#125);
#127=CARTESIAN_POINT('',(2.384848003542321,28.609606028490020,36.422005710833666));
#128=CARTESIAN_POINT('',(1.656413843385863,28.542507599842207,36.469702281043261));
#129=CARTESIAN_POINT('',(0.929187482416136,28.506611710851324,36.495290357956151));
#130=CARTESIAN_POINT('',(0.208361042532087,28.500834904252120,36.499405278387137));
#131=CARTESIAN_POINT('',(-0.474048990121764,28.495365972257016,36.503300894350019));
#132=CARTESIAN_POINT('',(-1.158440480527099,28.516643823180065,36.488129709883360));
#133=CARTESIAN_POINT('',(-1.847190070459081,28.565700533008467,36.453228784890882));
#134=CARTESIAN_POINT('',(-2.026284502844516,28.578456669244108,36.444153554295283));
#135=CARTESIAN_POINT('',(-2.205529242097868,28.593088396865756,36.433747183657097));
#136=CARTESIAN_POINT('',(-2.384848003542322,28.609606028490020,36.422005710833666));
#137=B_SPLINE_CURVE_WITH_KNOTS('',3,(#127,#128,#129,#130,#131,#132,#133,#134,#135,#136),.UNSPECIFIED.,.F.,.U.,(4,3,3,4),(3.876871920530117,4.092734912217710,4.297093497108109,4.350232526588549),.UNSPECIFIED.);
#138=EDGE_CURVE('',#124,#126,#137,.T.);
#139=ORIENTED_EDGE('',*,*,#138,.F.);
#140=CARTESIAN_POINT('',(2.384848003542024,80.390393971509994,36.422005710833687));
#141=VERTEX_POINT('',#140);
#142=CARTESIAN_POINT('',(0.0,54.500000000000000,36.422005710833666));
#143=DIRECTION('',(0.0,0.0,-1.0));
#144=DIRECTION('',(-1.0,0.0,0.0));
#145=AXIS2_PLACEMENT_3D('',#142,#143,#144);
#146=CIRCLE('',#145,26.0);
#147=EDGE_CURVE('',#141,#124,#146,.T.);
#148=ORIENTED_EDGE('',*,*,#147,.F.);
#149=CARTESIAN_POINT('',(-2.384848003542024,80.390393971509994,36.422005710833687));
#150=VERTEX_POINT('',#149);
#151=CARTESIAN_POINT('',(-2.384848003542024,80.390393971510008,36.422005710833680));
#152=CARTESIAN_POINT('',(-1.656413843382156,80.457492400158131,36.469702281043496));
#153=CARTESIAN_POINT('',(-0.929187482409031,80.493388289149024,36.495290357956392));
#154=CARTESIAN_POINT('',(-0.208361042521671,80.499165095747969,36.499405278387194));
#155=CARTESIAN_POINT('',(0.474048990127803,80.504634027742767,36.503300894349856));
#156=CARTESIAN_POINT('',(1.158440480528895,80.483356176819740,36.488129709883218));
#157=CARTESIAN_POINT('',(1.847190070456511,80.434299466991718,36.453228784891010));
#158=CARTESIAN_POINT('',(2.026284502842702,80.421543330756037,36.444153554295390));
#159=CARTESIAN_POINT('',(2.205529242096810,80.406911603134347,36.433747183657154));
#160=CARTESIAN_POINT('',(2.384848003542023,80.390393971510008,36.422005710833680));
#161=B_SPLINE_CURVE_WITH_KNOTS('',3,(#151,#152,#153,#154,#155,#156,#157,#158,#159,#160),.UNSPECIFIED.,.F.,.U.,(4,3,3,4),(12.103976367648816,12.319839359337418,12.524197944226524,12.577336973707189),.UNSPECIFIED.);
#162=EDGE_CURVE('',#150,#141,#161,.T.);
#163=ORIENTED_EDGE('',*,*,#162,.F.);
#164=CARTESIAN_POINT('',(0.0,54.500000000000000,36.422005710833666));
#165=DIRECTION('',(0.0,0.0,-1.0));
#166=DIRECTION('',(-1.0,0.0,0.0));
#167=AXIS2_PLACEMENT_3D('',#164,#165,#166);
#168=CIRCLE('',#167,26.0);
#169=EDGE_CURVE('',#126,#150,#168,.T.);
#170=ORIENTED_EDGE('',*,*,#169,.F.);
#171=EDGE_LOOP('',(#139,#148,#163,#170));
#172=FACE_BOUND('',#171,.T.);
#173=ADVANCED_FACE('',(#122,#172),#111,.T.);
#174=CARTESIAN_POINT('',(0.0,54.500000000000000,85.0));
#175=DIRECTION('',(0.0,0.0,-1.0));
#176=DIRECTION('',(-1.0,0.0,0.0));
#177=AXIS2_PLACEMENT_3D('',#174,#175,#176);
#178=PLANE('',#177);
#179=ORIENTED_EDGE('',*,*,#119,.F.);
#180=EDGE_LOOP('',(#179));
#181=FACE_OUTER_BOUND('',#180,.T.);
#182=ADVANCED_FACE('',(#181),#178,.F.);
#183=CARTESIAN_POINT('',(0.0,83.967256517222580,0.0));
#184=DIRECTION('',(0.0,1.0,0.0));
#185=DIRECTION('',(1.0,0.0,0.0));
#186=AXIS2_PLACEMENT_3D('',#183,#184,#185);
#187=CYLINDRICAL_SURFACE('',#186,36.500000000000000);
#188=ORIENTED_EDGE('',*,*,#162,.T.);
#189=CARTESIAN_POINT('',(0.0,80.390393971510008,0.0));
#190=DIRECTION('',(0.0,1.0,0.0));
#191=DIRECTION('',(1.0,0.0,0.0));
#192=AXIS2_PLACEMENT_3D('',#189,#190,#191);
#193=CIRCLE('',#192,36.500000000000000);
#194=EDGE_CURVE('',#141,#150,#193,.T.);
#195=ORIENTED_EDGE('',*,*,#194,.T.);
#196=EDGE_LOOP('',(#188,#195));
#197=FACE_OUTER_BOUND('',#196,.T.);
#198=CARTESIAN_POINT('',(36.500000000000000,87.544119062935152,0.0));
#199=VERTEX_POINT('',#198);
#200=CARTESIAN_POINT('',(0.0,87.544119062935152,0.0));
#201=DIRECTION('',(0.0,1.0,0.0));
#202=DIRECTION('',(1.0,0.0,0.0));
#203=AXIS2_PLACEMENT_3D('',#200,#201,#202);
#204=CIRCLE('',#203,36.500000000000000);
#205=EDGE_CURVE('',#199,#199,#204,.T.);
#206=ORIENTED_EDGE('',*,*,#205,.F.);
#207=EDGE_LOOP('',(#206));
#208=FACE_BOUND('',#207,.T.);
#209=ADVANCED_FACE('',(#197,#208),#187,.T.);
#210=CARTESIAN_POINT('',(12.999999999999886,0.0,0.0));
#211=DIRECTION('',(0.0,-1.0,0.0));
#212=DIRECTION('',(0.0,0.0,-1.0));
#213=AXIS2_PLACEMENT_3D('',#210,#211,#212);
#214=PLANE('',#213);
#215=CARTESIAN_POINT('',(25.999999999999773,0.0,0.0));
#216=VERTEX_POINT('',#215);
#217=CARTESIAN_POINT('',(0.0,0.0,0.0));
#218=DIRECTION('',(0.0,1.0,0.0));
#219=DIRECTION('',(1.0,0.0,0.0));
#220=AXIS2_PLACEMENT_3D('',#217,#218,#219);
#221=CIRCLE('',#220,25.999999999999773);
#222=EDGE_CURVE('',#216,#216,#221,.T.);
#223=ORIENTED_EDGE('',*,*,#222,.F.);
#224=EDGE_LOOP('',(#223));
#225=FACE_OUTER_BOUND('',#224,.T.);
#226=ADVANCED_FACE('',(#225),#214,.T.);
#227=CARTESIAN_POINT('',(0.0,10.0,0.0));
#228=DIRECTION('',(0.0,1.0,0.0));
#229=DIRECTION('',(1.0,0.0,0.0));
#230=AXIS2_PLACEMENT_3D('',#227,#228,#229);
#231=CYLINDRICAL_SURFACE('',#230,25.999999999999890);
#232=CARTESIAN_POINT('',(26.000000000000007,20.0,0.0));
#233=VERTEX_POINT('',#232);
#234=CARTESIAN_POINT('',(0.0,20.0,0.0));
#235=DIRECTION('',(0.0,1.0,0.0));
#236=DIRECTION('',(1.0,0.0,0.0));
#237=AXIS2_PLACEMENT_3D('',#234,#235,#236);
#238=CIRCLE('',#237,26.000000000000007);
#239=EDGE_CURVE('',#233,#233,#238,.T.);
#240=ORIENTED_EDGE('',*,*,#239,.F.);
#241=EDGE_LOOP('',(#240));
#242=FACE_OUTER_BOUND('',#241,.T.);
#243=ORIENTED_EDGE('',*,*,#222,.T.);
#244=EDGE_LOOP('',(#243));
#245=FACE_BOUND('',#244,.T.);
#246=ADVANCED_FACE('',(#242,#245),#231,.T.);
#247=CARTESIAN_POINT('',(30.750000000000007,20.0,0.0));
#248=DIRECTION('',(0.0,-1.0,0.0));
#249=DIRECTION('',(0.0,0.0,-1.0));
#250=AXIS2_PLACEMENT_3D('',#247,#248,#249);
#251=PLANE('',#250);
#252=CARTESIAN_POINT('',(35.500000000000007,20.0,0.0));
#253=VERTEX_POINT('',#252);
#254=CARTESIAN_POINT('',(0.0,20.0,0.0));
#255=DIRECTION('',(0.0,1.0,0.0));
#256=DIRECTION('',(1.0,0.0,0.0));
#257=AXIS2_PLACEMENT_3D('',#254,#255,#256);
#258=CIRCLE('',#257,35.500000000000007);
#259=EDGE_CURVE('',#253,#253,#258,.T.);
#260=ORIENTED_EDGE('',*,*,#259,.F.);
#261=EDGE_LOOP('',(#260));
#262=FACE_OUTER_BOUND('',#261,.T.);
#263=ORIENTED_EDGE('',*,*,#239,.T.);
#264=EDGE_LOOP('',(#263));
#265=FACE_BOUND('',#264,.T.);
#266=ADVANCED_FACE('',(#262,#265),#251,.T.);
#267=CARTESIAN_POINT('',(0.0,21.0,0.0));
#268=DIRECTION('',(0.0,1.0,0.0));
#269=DIRECTION('',(0.0,0.0,1.0));
#270=AXIS2_PLACEMENT_3D('',#267,#268,#269);
#271=TOROIDAL_SURFACE('',#270,35.500000000000007,1.0);
#272=CARTESIAN_POINT('',(36.500000000000000,21.000000000000007,0.0));
#273=VERTEX_POINT('',#272);
#274=CARTESIAN_POINT('',(0.0,21.000000000000007,0.0));
#275=DIRECTION('',(0.0,1.0,0.0));
#276=DIRECTION('',(1.0,0.0,0.0));
#277=AXIS2_PLACEMENT_3D('',#274,#275,#276);
#278=CIRCLE('',#277,36.500000000000000);
#279=EDGE_CURVE('',#273,#273,#278,.T.);
#280=ORIENTED_EDGE('',*,*,#279,.F.);
#281=EDGE_LOOP('',(#280));
#282=FACE_OUTER_BOUND('',#281,.T.);
#283=ORIENTED_EDGE('',*,*,#259,.T.);
#284=EDGE_LOOP('',(#283));
#285=FACE_BOUND('',#284,.T.);
#286=ADVANCED_FACE('',(#282,#285),#271,.T.);
#287=CARTESIAN_POINT('',(0.0,24.804803014245014,0.0));
#288=DIRECTION('',(0.0,1.0,0.0));
#289=DIRECTION('',(1.0,0.0,0.0));
#290=AXIS2_PLACEMENT_3D('',#287,#288,#289);
#291=CYLINDRICAL_SURFACE('',#290,36.500000000000000);
#292=ORIENTED_EDGE('',*,*,#138,.T.);
#293=CARTESIAN_POINT('',(0.0,28.609606028490020,0.0));
#294=DIRECTION('',(0.0,1.0,0.0));
#295=DIRECTION('',(1.0,0.0,0.0));
#296=AXIS2_PLACEMENT_3D('',#293,#294,#295);
#297=CIRCLE('',#296,36.500000000000000);
#298=EDGE_CURVE('',#124,#126,#297,.T.);
#299=ORIENTED_EDGE('',*,*,#298,.F.);
#300=EDGE_LOOP('',(#292,#299));
#301=FACE_OUTER_BOUND('',#300,.T.);
#302=ORIENTED_EDGE('',*,*,#279,.T.);
#303=EDGE_LOOP('',(#302));
#304=FACE_BOUND('',#303,.T.);
#305=ADVANCED_FACE('',(#301,#304),#291,.T.);
#306=CARTESIAN_POINT('',(0.0,54.500000000000028,0.0));
#307=DIRECTION('',(0.0,0.0,1.0));
#308=DIRECTION('',(1.0,0.0,0.0));
#309=AXIS2_PLACEMENT_3D('',#306,#307,#308);
#310=SPHERICAL_SURFACE('',#309,44.750000000000007);
#311=ORIENTED_EDGE('',*,*,#169,.T.);
#312=ORIENTED_EDGE('',*,*,#194,.F.);
#313=ORIENTED_EDGE('',*,*,#147,.T.);
#314=ORIENTED_EDGE('',*,*,#298,.T.);
#315=EDGE_LOOP('',(#311,#312,#313,#314));
#316=FACE_OUTER_BOUND('',#315,.T.);
#317=ADVANCED_FACE('',(#316),#310,.T.);
#318=CARTESIAN_POINT('',(0.0,88.272059531467590,0.0));
#319=DIRECTION('',(0.0,1.0,0.0));
#320=DIRECTION('',(1.0,0.0,0.0));
#321=AXIS2_PLACEMENT_3D('',#318,#319,#320);
#322=CONICAL_SURFACE('',#321,38.500000000000007,69.999999999999133);
#323=CARTESIAN_POINT('',(40.500000000000007,89.000000000000043,0.0));
#324=VERTEX_POINT('',#323);
#325=CARTESIAN_POINT('',(0.0,89.000000000000043,0.0));
#326=DIRECTION('',(0.0,1.0,0.0));
#327=DIRECTION('',(1.0,0.0,0.0));
#328=AXIS2_PLACEMENT_3D('',#325,#326,#327);
#329=CIRCLE('',#328,40.500000000000007);
#330=EDGE_CURVE('',#324,#324,#329,.T.);
#331=ORIENTED_EDGE('',*,*,#330,.F.);
#332=EDGE_LOOP('',(#331));
#333=FACE_OUTER_BOUND('',#332,.T.);
#334=ORIENTED_EDGE('',*,*,#205,.T.);
#335=EDGE_LOOP('',(#334));
#336=FACE_BOUND('',#335,.T.);
#337=ADVANCED_FACE('',(#333,#336),#322,.T.);
#338=CARTESIAN_POINT('',(0.0,90.500000000000043,0.0));
#339=DIRECTION('',(0.0,1.0,0.0));
#340=DIRECTION('',(1.0,0.0,0.0));
#341=AXIS2_PLACEMENT_3D('',#338,#339,#340);
#342=CYLINDRICAL_SURFACE('',#341,40.500000000000007);
#343=CARTESIAN_POINT('',(40.500000000000007,92.000000000000028,0.0));
#344=VERTEX_POINT('',#343);
#345=CARTESIAN_POINT('',(0.0,92.000000000000028,0.0));
#346=DIRECTION('',(0.0,1.0,0.0));
#347=DIRECTION('',(1.0,0.0,0.0));
#348=AXIS2_PLACEMENT_3D('',#345,#346,#347);
#349=CIRCLE('',#348,40.500000000000007);
#350=EDGE_CURVE('',#344,#344,#349,.T.);
#351=ORIENTED_EDGE('',*,*,#350,.F.);
#352=EDGE_LOOP('',(#351));
#353=FACE_OUTER_BOUND('',#352,.T.);
#354=ORIENTED_EDGE('',*,*,#330,.T.);
#355=EDGE_LOOP('',(#354));
#356=FACE_BOUND('',#355,.T.);
#357=ADVANCED_FACE('',(#353,#356),#342,.T.);
#358=CARTESIAN_POINT('',(20.250000000000004,92.000000000000028,0.0));
#359=DIRECTION('',(0.0,1.0,0.0));
#360=DIRECTION('',(0.0,0.0,1.0));
#361=AXIS2_PLACEMENT_3D('',#358,#359,#360);
#362=PLANE('',#361);
#363=ORIENTED_EDGE('',*,*,#350,.T.);
#364=EDGE_LOOP('',(#363));
#365=FACE_OUTER_BOUND('',#364,.T.);
#366=ADVANCED_FACE('',(#365),#362,.T.);
#367=CLOSED_SHELL('',(#173,#182,#209,#226,#246,#266,#286,#305,#317,#337,#357,#366));
#368=MANIFOLD_SOLID_BREP('',#367);
#369=COLOUR_RGB('Default',0.752941012382507,0.752941012382507,0.752941012382507);
#370=FILL_AREA_STYLE_COLOUR('Default',#369);
#371=FILL_AREA_STYLE('Default',(#370));
#372=SURFACE_STYLE_FILL_AREA(#371);
#373=SURFACE_SIDE_STYLE('Default',(#372));
#374=SURFACE_STYLE_USAGE(.BOTH.,#373);
#375=PRESENTATION_STYLE_ASSIGNMENT((#374));
#376=STYLED_ITEM('',(#375),#368);
#377=MECHANICAL_DESIGN_GEOMETRIC_PRESENTATION_REPRESENTATION('',(#376,#643),#36);
#378=ADVANCED_BREP_SHAPE_REPRESENTATION('ABSR',(#368),#75);
#379=SHAPE_REPRESENTATION_RELATIONSHIP('SRR','None',#378,#80);
#380=AXIS2_PLACEMENT_3D('',#381,#382,#383);
#381=CARTESIAN_POINT('',(-6.098181E-022,-1.335765E-023,3.108624E-014));
#382=DIRECTION('',(6.196147E-117,1.232595E-031,1.000000000000000));
#383=DIRECTION('',(1.000000000000000,1.509882E-024,1.476995E-048));
#384=NEXT_ASSEMBLY_USAGE_OCCURRENCE('COR-INF-L-SAL-DN50:1','COR-INF-L-SAL-DN50:1','COR-INF-L-SAL-DN50:1',#12,#51,'COR-INF-L-SAL-DN50:1');
#385=PRODUCT_DEFINITION_SHAPE('COR-INF-L-SAL-DN50:1','COR-INF-L-SAL-DN50:1',#384);
#386=ITEM_DEFINED_TRANSFORMATION('COR-INF-L-SAL-DN50:1','COR-INF-L-SAL-DN50:1',#76,#380);
#390=(REPRESENTATION_RELATIONSHIP('COR-INF-L-SAL-DN50:1','COR-INF-L-SAL-DN50:1',#80,#41)REPRESENTATION_RELATIONSHIP_WITH_TRANSFORMATION(#386)SHAPE_REPRESENTATION_RELATIONSHIP());
#391=CONTEXT_DEPENDENT_SHAPE_REPRESENTATION(#390,#385);
#392=APPLICATION_CONTEXT('automotive design');
#393=APPLICATION_PROTOCOL_DEFINITION('International Standard','automotive_design',2001,#392);
#394=PRODUCT_CONTEXT('',#392,'mechanical');
#395=PRODUCT('calotta BBZS1 050','calotta BBZS1 050',$,(#394));
#396=PRODUCT_RELATED_PRODUCT_CATEGORY('part',$,(#395));
#397=PRODUCT_DEFINITION_FORMATION('',$,#395);
#398=PRODUCT_DEFINITION_CONTEXT('part definition',#392,'design');
#399=PRODUCT_DEFINITION('',$,#397,#398);
#405=(NAMED_UNIT(*)PLANE_ANGLE_UNIT()SI_UNIT($,.RADIAN.));
#406=DIMENSIONAL_EXPONENTS(0.0,0.0,0.0,0.0,0.0,0.0,0.0);
#407=PLANE_ANGLE_MEASURE_WITH_UNIT(PLANE_ANGLE_MEASURE(0.017453292500000),#405);
#411=(CONVERSION_BASED_UNIT('DEGREE',#407)NAMED_UNIT(#406)PLANE_ANGLE_UNIT());
#415=(NAMED_UNIT(*)SI_UNIT($,.STERADIAN.)SOLID_ANGLE_UNIT());
#419=(LENGTH_UNIT()NAMED_UNIT(*)SI_UNIT(.MILLI.,.METRE.));
#421=UNCERTAINTY_MEASURE_WITH_UNIT(LENGTH_MEASURE(0.010000000000000),#419,'DISTANCE_ACCURACY_VALUE','');
#423=(GEOMETRIC_REPRESENTATION_CONTEXT(3)GLOBAL_UNCERTAINTY_ASSIGNED_CONTEXT((#421))GLOBAL_UNIT_ASSIGNED_CONTEXT((#411,#415,#419))REPRESENTATION_CONTEXT('None','None'));
#424=AXIS2_PLACEMENT_3D('',#425,#426,#427);
#425=CARTESIAN_POINT('',(0.0,0.0,0.0));
#426=DIRECTION('',(0.0,0.0,1.0));
#427=DIRECTION('',(1.0,0.0,0.0));
#428=SHAPE_REPRESENTATION('',(#424),#423);
#429=PRODUCT_DEFINITION_SHAPE('','',#399);
#430=SHAPE_DEFINITION_REPRESENTATION(#429,#428);
#436=(NAMED_UNIT(*)PLANE_ANGLE_UNIT()SI_UNIT($,.RADIAN.));
#437=DIMENSIONAL_EXPONENTS(0.0,0.0,0.0,0.0,0.0,0.0,0.0);
#438=PLANE_ANGLE_MEASURE_WITH_UNIT(PLANE_ANGLE_MEASURE(0.017453292500000),#436);
#442=(CONVERSION_BASED_UNIT('DEGREE',#438)NAMED_UNIT(#437)PLANE_ANGLE_UNIT());
#446=(NAMED_UNIT(*)SI_UNIT($,.STERADIAN.)SOLID_ANGLE_UNIT());
#450=(LENGTH_UNIT()NAMED_UNIT(*)SI_UNIT(.MILLI.,.METRE.));
#452=UNCERTAINTY_MEASURE_WITH_UNIT(LENGTH_MEASURE(0.000001000000000),#450,'DISTANCE_ACCURACY_VALUE','');
#454=(GEOMETRIC_REPRESENTATION_CONTEXT(3)GLOBAL_UNCERTAINTY_ASSIGNED_CONTEXT((#452))GLOBAL_UNIT_ASSIGNED_CONTEXT((#442,#446,#450))REPRESENTATION_CONTEXT('','3D'));
#455=CARTESIAN_POINT('',(0.0,189.802743893159660,0.0));
#456=DIRECTION('',(0.0,1.0,0.0));
#457=DIRECTION('',(0.0,0.0,1.0));
#458=AXIS2_PLACEMENT_3D('',#455,#456,#457);
#459=TOROIDAL_SURFACE('',#458,26.999999999999822,5.0);
#460=CARTESIAN_POINT('',(0.0,194.793006785574080,27.311891430776420));
#461=VERTEX_POINT('',#460);
#462=CARTESIAN_POINT('',(0.0,194.793006785574080,0.0));
#463=DIRECTION('',(0.0,1.0,0.0));
#464=DIRECTION('',(0.0,0.0,1.0));
#465=AXIS2_PLACEMENT_3D('',#462,#463,#464);
#466=CIRCLE('',#465,27.311891430776420);
#467=EDGE_CURVE('',#461,#461,#466,.T.);
#468=ORIENTED_EDGE('',*,*,#467,.F.);
#469=EDGE_LOOP('',(#468));
#470=FACE_OUTER_BOUND('',#469,.T.);
#471=CARTESIAN_POINT('',(0.0,189.802743893159660,31.999999999999822));
#472=VERTEX_POINT('',#471);
#473=CARTESIAN_POINT('',(0.0,189.802743893159660,0.0));
#474=DIRECTION('',(0.0,1.0,0.0));
#475=DIRECTION('',(0.0,0.0,1.0));
#476=AXIS2_PLACEMENT_3D('',#473,#474,#475);
#477=CIRCLE('',#476,31.999999999999822);
#478=EDGE_CURVE('',#472,#472,#477,.T.);
#479=ORIENTED_EDGE('',*,*,#478,.T.);
#480=EDGE_LOOP('',(#479));
#481=FACE_BOUND('',#480,.T.);
#482=ADVANCED_FACE('',(#470,#481),#459,.T.);
#483=CARTESIAN_POINT('',(0.0,195.646503392785890,0.0));
#484=DIRECTION('',(0.0,-1.0,0.0));
#485=DIRECTION('',(0.0,0.0,1.0));
#486=AXIS2_PLACEMENT_3D('',#483,#484,#485);
#487=CONICAL_SURFACE('',#486,13.655945715387880,86.423665625002528);
#488=ORIENTED_EDGE('',*,*,#467,.T.);
#489=EDGE_LOOP('',(#488));
#490=FACE_OUTER_BOUND('',#489,.T.);
#491=ADVANCED_FACE('',(#490),#487,.T.);
#492=CARTESIAN_POINT('',(0.0,4.884981E-014,20.249999999999972));
#493=DIRECTION('',(0.0,-1.0,0.0));
#494=DIRECTION('',(0.0,0.0,-1.0));
#495=AXIS2_PLACEMENT_3D('',#492,#493,#494);
#496=PLANE('',#495);
#497=CARTESIAN_POINT('',(0.0,9.769963E-014,40.499999999999943));
#498=VERTEX_POINT('',#497);
#499=CARTESIAN_POINT('',(0.0,1.065814E-013,0.0));
#500=DIRECTION('',(0.0,1.0,0.0));
#501=DIRECTION('',(0.0,0.0,1.0));
#502=AXIS2_PLACEMENT_3D('',#499,#500,#501);
#503=CIRCLE('',#502,40.499999999999943);
#504=EDGE_CURVE('',#498,#498,#503,.T.);
#505=ORIENTED_EDGE('',*,*,#504,.F.);
#506=EDGE_LOOP('',(#505));
#507=FACE_OUTER_BOUND('',#506,.T.);
#508=ADVANCED_FACE('',(#507),#496,.T.);
#509=CARTESIAN_POINT('',(0.0,1.500000000000021,0.0));
#510=DIRECTION('',(0.0,1.0,0.0));
#511=DIRECTION('',(0.0,0.0,1.0));
#512=AXIS2_PLACEMENT_3D('',#509,#510,#511);
#513=CYLINDRICAL_SURFACE('',#512,40.499999999999943);
#514=CARTESIAN_POINT('',(0.0,2.999999999999918,40.499999999999943));
#515=VERTEX_POINT('',#514);
#516=CARTESIAN_POINT('',(0.0,2.999999999999901,0.0));
#517=DIRECTION('',(0.0,1.0,0.0));
#518=DIRECTION('',(0.0,0.0,1.0));
#519=AXIS2_PLACEMENT_3D('',#516,#517,#518);
#520=CIRCLE('',#519,40.499999999999943);
#521=EDGE_CURVE('',#515,#515,#520,.T.);
#522=ORIENTED_EDGE('',*,*,#521,.F.);
#523=EDGE_LOOP('',(#522));
#524=FACE_OUTER_BOUND('',#523,.T.);
#525=ORIENTED_EDGE('',*,*,#504,.T.);
#526=EDGE_LOOP('',(#525));
#527=FACE_BOUND('',#526,.T.);
#528=ADVANCED_FACE('',(#524,#527),#513,.T.);
#529=CARTESIAN_POINT('',(0.0,4.455880937064727,0.0));
#530=DIRECTION('',(0.0,-1.0,0.0));
#531=DIRECTION('',(0.0,0.0,1.0));
#532=AXIS2_PLACEMENT_3D('',#529,#530,#531);
#533=CONICAL_SURFACE('',#532,36.499999999999943,70.000000000000156);
#534=CARTESIAN_POINT('',(0.0,5.911761874129518,32.499999999999936));
#535=VERTEX_POINT('',#534);
#536=CARTESIAN_POINT('',(0.0,5.911761874129518,0.0));
#537=DIRECTION('',(0.0,1.0,0.0));
#538=DIRECTION('',(0.0,0.0,1.0));
#539=AXIS2_PLACEMENT_3D('',#536,#537,#538);
#540=CIRCLE('',#539,32.499999999999936);
#541=EDGE_CURVE('',#535,#535,#540,.T.);
#542=ORIENTED_EDGE('',*,*,#541,.F.);
#543=EDGE_LOOP('',(#542));
#544=FACE_OUTER_BOUND('',#543,.T.);
#545=ORIENTED_EDGE('',*,*,#521,.T.);
#546=EDGE_LOOP('',(#545));
#547=FACE_BOUND('',#546,.T.);
#548=ADVANCED_FACE('',(#544,#547),#533,.T.);
#549=CARTESIAN_POINT('',(0.0,8.455880937064642,0.0));
#550=DIRECTION('',(0.0,1.0,0.0));
#551=DIRECTION('',(0.0,0.0,1.0));
#552=AXIS2_PLACEMENT_3D('',#549,#550,#551);
#553=CYLINDRICAL_SURFACE('',#552,32.500000000000064);
#554=CARTESIAN_POINT('',(0.0,10.999999999999766,32.500000000000185));
#555=VERTEX_POINT('',#554);
#556=CARTESIAN_POINT('',(0.0,10.999999999999766,0.0));
#557=DIRECTION('',(0.0,1.0,0.0));
#558=DIRECTION('',(0.0,0.0,1.0));
#559=AXIS2_PLACEMENT_3D('',#556,#557,#558);
#560=CIRCLE('',#559,32.500000000000185);
#561=EDGE_CURVE('',#555,#555,#560,.T.);
#562=ORIENTED_EDGE('',*,*,#561,.F.);
#563=EDGE_LOOP('',(#562));
#564=FACE_OUTER_BOUND('',#563,.T.);
#565=ORIENTED_EDGE('',*,*,#541,.T.);
#566=EDGE_LOOP('',(#565));
#567=FACE_BOUND('',#566,.T.);
#568=ADVANCED_FACE('',(#564,#567),#553,.T.);
#569=CARTESIAN_POINT('',(0.0,10.999999999999801,35.000000000000540));
#570=DIRECTION('',(0.0,-1.0,0.0));
#571=DIRECTION('',(0.0,0.0,-1.0));
#572=AXIS2_PLACEMENT_3D('',#569,#570,#571);
#573=PLANE('',#572);
#574=CARTESIAN_POINT('',(0.0,10.999999999999837,37.500000000000895));
#575=VERTEX_POINT('',#574);
#576=CARTESIAN_POINT('',(0.0,10.999999999999837,0.0));
#577=DIRECTION('',(0.0,1.0,0.0));
#578=DIRECTION('',(0.0,0.0,1.0));
#579=AXIS2_PLACEMENT_3D('',#576,#577,#578);
#580=CIRCLE('',#579,37.500000000000895);
#581=EDGE_CURVE('',#575,#575,#580,.T.);
#582=ORIENTED_EDGE('',*,*,#581,.F.);
#583=EDGE_LOOP('',(#582));
#584=FACE_OUTER_BOUND('',#583,.T.);
#585=ORIENTED_EDGE('',*,*,#561,.T.);
#586=EDGE_LOOP('',(#585));
#587=FACE_BOUND('',#586,.T.);
#588=ADVANCED_FACE('',(#584,#587),#573,.T.);
#589=CARTESIAN_POINT('',(0.0,17.499999999999787,0.0));
#590=DIRECTION('',(0.0,1.0,0.0));
#591=DIRECTION('',(0.0,0.0,1.0));
#592=AXIS2_PLACEMENT_3D('',#589,#590,#591);
#593=CYLINDRICAL_SURFACE('',#592,37.500000000000888);
#594=CARTESIAN_POINT('',(0.0,23.999999999999702,37.500000000000881));
#595=VERTEX_POINT('',#594);
#596=CARTESIAN_POINT('',(0.0,23.999999999999702,0.0));
#597=DIRECTION('',(0.0,1.0,0.0));
#598=DIRECTION('',(0.0,0.0,1.0));
#599=AXIS2_PLACEMENT_3D('',#596,#597,#598);
#600=CIRCLE('',#599,37.500000000000881);
#601=EDGE_CURVE('',#595,#595,#600,.T.);
#602=ORIENTED_EDGE('',*,*,#601,.F.);
#603=EDGE_LOOP('',(#602));
#604=FACE_OUTER_BOUND('',#603,.T.);
#605=ORIENTED_EDGE('',*,*,#581,.T.);
#606=EDGE_LOOP('',(#605));
#607=FACE_BOUND('',#606,.T.);
#608=ADVANCED_FACE('',(#604,#607),#593,.T.);
#609=CARTESIAN_POINT('',(0.0,26.749999999999758,0.0));
#610=DIRECTION('',(0.0,-1.0,0.0));
#611=DIRECTION('',(0.0,0.0,1.0));
#612=AXIS2_PLACEMENT_3D('',#609,#610,#611);
#613=CONICAL_SURFACE('',#612,34.750000000000263,45.000000000005649);
#614=CARTESIAN_POINT('',(0.0,29.499999999999851,31.999999999999645));
#615=VERTEX_POINT('',#614);
#616=CARTESIAN_POINT('',(0.0,29.499999999999851,0.0));
#617=DIRECTION('',(0.0,1.0,0.0));
#618=DIRECTION('',(0.0,0.0,1.0));
#619=AXIS2_PLACEMENT_3D('',#616,#617,#618);
#620=CIRCLE('',#619,31.999999999999645);
#621=EDGE_CURVE('',#615,#615,#620,.T.);
#622=ORIENTED_EDGE('',*,*,#621,.F.);
#623=EDGE_LOOP('',(#622));
#624=FACE_OUTER_BOUND('',#623,.T.);
#625=ORIENTED_EDGE('',*,*,#601,.T.);
#626=EDGE_LOOP('',(#625));
#627=FACE_BOUND('',#626,.T.);
#628=ADVANCED_FACE('',(#624,#627),#613,.T.);
#629=CARTESIAN_POINT('',(0.0,109.651371946579760,0.0));
#630=DIRECTION('',(0.0,1.0,0.0));
#631=DIRECTION('',(0.0,0.0,1.0));
#632=AXIS2_PLACEMENT_3D('',#629,#630,#631);
#633=CYLINDRICAL_SURFACE('',#632,31.999999999999737);
#634=ORIENTED_EDGE('',*,*,#478,.F.);
#635=EDGE_LOOP('',(#634));
#636=FACE_OUTER_BOUND('',#635,.T.);
#637=ORIENTED_EDGE('',*,*,#621,.T.);
#638=EDGE_LOOP('',(#637));
#639=FACE_BOUND('',#638,.T.);
#640=ADVANCED_FACE('',(#636,#639),#633,.T.);
#641=CLOSED_SHELL('',(#482,#491,#508,#528,#548,#568,#588,#608,#628,#640));
#642=MANIFOLD_SOLID_BREP('',#641);
#643=STYLED_ITEM('',(#375),#642);
#644=ADVANCED_BREP_SHAPE_REPRESENTATION('ABSR',(#642),#423);
#645=SHAPE_REPRESENTATION_RELATIONSHIP('SRR','None',#644,#428);
#646=AXIS2_PLACEMENT_3D('',#647,#648,#649);
#647=CARTESIAN_POINT('',(-3.054156E-022,91.999999999999915,3.108624E-014));
#648=DIRECTION('',(-4.078315E-055,1.232595E-031,1.0));
#649=DIRECTION('',(1.0,0.0,4.078315E-055));
#650=NEXT_ASSEMBLY_USAGE_OCCURRENCE('calotta BBZS1 050:1','calotta BBZS1 050:1','calotta BBZS1 050:1',#12,#399,'calotta BBZS1 050:1');
#651=PRODUCT_DEFINITION_SHAPE('calotta BBZS1 050:1','calotta BBZS1 050:1',#650);
#652=ITEM_DEFINED_TRANSFORMATION('calotta BBZS1 050:1','calotta BBZS1 050:1',#424,#646);
#656=(REPRESENTATION_RELATIONSHIP('calotta BBZS1 050:1','calotta BBZS1 050:1',#428,#41)REPRESENTATION_RELATIONSHIP_WITH_TRANSFORMATION(#652)SHAPE_REPRESENTATION_RELATIONSHIP());
#657=CONTEXT_DEPENDENT_SHAPE_REPRESENTATION(#656,#651);
ENDSEC;
END-ISO-10303-21;
