ISO-10303-21;
HEADER;
/****************************************************************
 * Generated by software with PDE/Lib inside                    *
 * PDElib Version v51a, created Thu 12/14/2006                  *
 * International Technegroup Inc. (www.iti-oh.com)              *
 ****************************************************************/
FILE_DESCRIPTION((''),'2;1');
FILE_NAME('\\\\Server1\\ufficio tecnico\\cad3d\\PNEUMATICA\\Ing1-1\\pne bbzp e derivate\\BBZS1\\BBZS1-DN020-SAL.stp','2009-08-27T16:46:00',('malp-m'),(''),'Autodesk Inventor 2008','Autodesk Inventor 2008','');
FILE_SCHEMA(('AUTOMOTIVE_DESIGN { 1 0 10303 214 1 1 1 1 }'));
ENDSEC;
DATA;
#5=APPLICATION_CONTEXT('automotive design');
#6=APPLICATION_PROTOCOL_DEFINITION('International Standard','automotive_design',2001,#5);
#7=PRODUCT_CONTEXT('',#5,'mechanical');
#8=PRODUCT('BBZS1-DN020-SAL','BBZS1-DN020-SAL',$,(#7));
#9=PRODUCT_RELATED_PRODUCT_CATEGORY('part',$,(#8));
#10=PRODUCT_DEFINITION_FORMATION('',$,#8);
#11=PRODUCT_DEFINITION_CONTEXT('part definition',#5,'design');
#12=PRODUCT_DEFINITION('',$,#10,#11);
#18=(NAMED_UNIT(*)PLANE_ANGLE_UNIT()SI_UNIT($,.RADIAN.));
#19=DIMENSIONAL_EXPONENTS(0.0,0.0,0.0,0.0,0.0,0.0,0.0);
#20=PLANE_ANGLE_MEASURE_WITH_UNIT(PLANE_ANGLE_MEASURE(0.017453292500000),#18);
#24=(CONVERSION_BASED_UNIT('DEGREE',#20)NAMED_UNIT(#19)PLANE_ANGLE_UNIT());
#28=(NAMED_UNIT(*)SI_UNIT($,.STERADIAN.)SOLID_ANGLE_UNIT());
#32=(LENGTH_UNIT()NAMED_UNIT(*)SI_UNIT(.MILLI.,.METRE.));
#34=UNCERTAINTY_MEASURE_WITH_UNIT(LENGTH_MEASURE(0.010000000000000),#32,'DISTANCE_ACCURACY_VALUE','');
#36=(GEOMETRIC_REPRESENTATION_CONTEXT(3)GLOBAL_UNCERTAINTY_ASSIGNED_CONTEXT((#34))GLOBAL_UNIT_ASSIGNED_CONTEXT((#24,#28,#32))REPRESENTATION_CONTEXT('None','None'));
#37=AXIS2_PLACEMENT_3D('',#38,#39,#40);
#38=CARTESIAN_POINT('',(0.0,0.0,0.0));
#39=DIRECTION('',(0.0,0.0,1.0));
#40=DIRECTION('',(1.0,0.0,0.0));
#41=SHAPE_REPRESENTATION('',(#37,#306,#612),#36);
#42=PRODUCT_DEFINITION_SHAPE('','',#12);
#43=SHAPE_DEFINITION_REPRESENTATION(#42,#41);
#44=APPLICATION_CONTEXT('automotive design');
#45=APPLICATION_PROTOCOL_DEFINITION('International Standard','automotive_design',2001,#44);
#46=PRODUCT_CONTEXT('',#44,'mechanical');
#47=PRODUCT('calotta BBZS1 025','calotta BBZS1 025',$,(#46));
#48=PRODUCT_RELATED_PRODUCT_CATEGORY('part',$,(#47));
#49=PRODUCT_DEFINITION_FORMATION('',$,#47);
#50=PRODUCT_DEFINITION_CONTEXT('part definition',#44,'design');
#51=PRODUCT_DEFINITION('',$,#49,#50);
#57=(NAMED_UNIT(*)PLANE_ANGLE_UNIT()SI_UNIT($,.RADIAN.));
#58=DIMENSIONAL_EXPONENTS(0.0,0.0,0.0,0.0,0.0,0.0,0.0);
#59=PLANE_ANGLE_MEASURE_WITH_UNIT(PLANE_ANGLE_MEASURE(0.017453292500000),#57);
#63=(CONVERSION_BASED_UNIT('DEGREE',#59)NAMED_UNIT(#58)PLANE_ANGLE_UNIT());
#67=(NAMED_UNIT(*)SI_UNIT($,.STERADIAN.)SOLID_ANGLE_UNIT());
#71=(LENGTH_UNIT()NAMED_UNIT(*)SI_UNIT(.MILLI.,.METRE.));
#73=UNCERTAINTY_MEASURE_WITH_UNIT(LENGTH_MEASURE(0.010000000000000),#71,'DISTANCE_ACCURACY_VALUE','');
#75=(GEOMETRIC_REPRESENTATION_CONTEXT(3)GLOBAL_UNCERTAINTY_ASSIGNED_CONTEXT((#73))GLOBAL_UNIT_ASSIGNED_CONTEXT((#63,#67,#71))REPRESENTATION_CONTEXT('None','None'));
#76=AXIS2_PLACEMENT_3D('',#77,#78,#79);
#77=CARTESIAN_POINT('',(0.0,0.0,0.0));
#78=DIRECTION('',(0.0,0.0,1.0));
#79=DIRECTION('',(1.0,0.0,0.0));
#80=SHAPE_REPRESENTATION('',(#76),#75);
#81=PRODUCT_DEFINITION_SHAPE('','',#51);
#82=SHAPE_DEFINITION_REPRESENTATION(#81,#80);
#88=(NAMED_UNIT(*)PLANE_ANGLE_UNIT()SI_UNIT($,.RADIAN.));
#89=DIMENSIONAL_EXPONENTS(0.0,0.0,0.0,0.0,0.0,0.0,0.0);
#90=PLANE_ANGLE_MEASURE_WITH_UNIT(PLANE_ANGLE_MEASURE(0.017453292500000),#88);
#94=(CONVERSION_BASED_UNIT('DEGREE',#90)NAMED_UNIT(#89)PLANE_ANGLE_UNIT());
#98=(NAMED_UNIT(*)SI_UNIT($,.STERADIAN.)SOLID_ANGLE_UNIT());
#102=(LENGTH_UNIT()NAMED_UNIT(*)SI_UNIT(.MILLI.,.METRE.));
#104=UNCERTAINTY_MEASURE_WITH_UNIT(LENGTH_MEASURE(0.000001000000000),#102,'DISTANCE_ACCURACY_VALUE','');
#106=(GEOMETRIC_REPRESENTATION_CONTEXT(3)GLOBAL_UNCERTAINTY_ASSIGNED_CONTEXT((#104))GLOBAL_UNIT_ASSIGNED_CONTEXT((#94,#98,#102))REPRESENTATION_CONTEXT('','3D'));
#107=CARTESIAN_POINT('',(0.0,3.727940468532243,0.0));
#108=DIRECTION('',(0.0,-1.0,0.0));
#109=DIRECTION('',(0.0,0.0,1.0));
#110=AXIS2_PLACEMENT_3D('',#107,#108,#109);
#111=CONICAL_SURFACE('',#110,26.500000000000000,69.999999999999730);
#112=CARTESIAN_POINT('',(0.0,4.455880937064656,24.500000000000007));
#113=VERTEX_POINT('',#112);
#114=CARTESIAN_POINT('',(0.0,4.455880937064656,0.0));
#115=DIRECTION('',(0.0,1.0,0.0));
#116=DIRECTION('',(0.0,0.0,1.0));
#117=AXIS2_PLACEMENT_3D('',#114,#115,#116);
#118=CIRCLE('',#117,24.500000000000007);
#119=EDGE_CURVE('',#113,#113,#118,.T.);
#120=ORIENTED_EDGE('',*,*,#119,.F.);
#121=EDGE_LOOP('',(#120));
#122=FACE_OUTER_BOUND('',#121,.T.);
#123=CARTESIAN_POINT('',(0.0,2.999999999999830,28.499999999999993));
#124=VERTEX_POINT('',#123);
#125=CARTESIAN_POINT('',(0.0,2.999999999999830,0.0));
#126=DIRECTION('',(0.0,1.0,0.0));
#127=DIRECTION('',(0.0,0.0,1.0));
#128=AXIS2_PLACEMENT_3D('',#125,#126,#127);
#129=CIRCLE('',#128,28.499999999999993);
#130=EDGE_CURVE('',#124,#124,#129,.T.);
#131=ORIENTED_EDGE('',*,*,#130,.T.);
#132=EDGE_LOOP('',(#131));
#133=FACE_BOUND('',#132,.T.);
#134=ADVANCED_FACE('',(#122,#133),#111,.T.);
#135=CARTESIAN_POINT('',(0.0,7.727940468531670,0.0));
#136=DIRECTION('',(0.0,-1.0,0.0));
#137=DIRECTION('',(0.0,0.0,1.0));
#138=AXIS2_PLACEMENT_3D('',#135,#136,#137);
#139=CONICAL_SURFACE('',#138,24.189044732895468,5.428714692174867);
#140=CARTESIAN_POINT('',(0.0,10.999999999998684,23.878089465790929));
#141=VERTEX_POINT('',#140);
#142=CARTESIAN_POINT('',(0.0,10.999999999998684,0.0));
#143=DIRECTION('',(0.0,1.0,0.0));
#144=DIRECTION('',(0.0,0.0,1.0));
#145=AXIS2_PLACEMENT_3D('',#142,#143,#144);
#146=CIRCLE('',#145,23.878089465790929);
#147=EDGE_CURVE('',#141,#141,#146,.T.);
#148=ORIENTED_EDGE('',*,*,#147,.F.);
#149=EDGE_LOOP('',(#148));
#150=FACE_OUTER_BOUND('',#149,.T.);
#151=ORIENTED_EDGE('',*,*,#119,.T.);
#152=EDGE_LOOP('',(#151));
#153=FACE_BOUND('',#152,.T.);
#154=ADVANCED_FACE('',(#150,#153),#139,.T.);
#155=CARTESIAN_POINT('',(0.0,10.999999999998655,30.689044732895894));
#156=DIRECTION('',(0.0,-1.0,0.0));
#157=DIRECTION('',(0.0,0.0,-1.0));
#158=AXIS2_PLACEMENT_3D('',#155,#156,#157);
#159=PLANE('',#158);
#160=CARTESIAN_POINT('',(0.0,10.999999999998629,37.500000000000867));
#161=VERTEX_POINT('',#160);
#162=CARTESIAN_POINT('',(0.0,10.999999999998629,0.0));
#163=DIRECTION('',(0.0,1.0,0.0));
#164=DIRECTION('',(0.0,0.0,1.0));
#165=AXIS2_PLACEMENT_3D('',#162,#163,#164);
#166=CIRCLE('',#165,37.500000000000867);
#167=EDGE_CURVE('',#161,#161,#166,.T.);
#168=ORIENTED_EDGE('',*,*,#167,.F.);
#169=EDGE_LOOP('',(#168));
#170=FACE_OUTER_BOUND('',#169,.T.);
#171=ORIENTED_EDGE('',*,*,#147,.T.);
#172=EDGE_LOOP('',(#171));
#173=FACE_BOUND('',#172,.T.);
#174=ADVANCED_FACE('',(#170,#173),#159,.T.);
#175=CARTESIAN_POINT('',(0.0,17.499999999998536,0.0));
#176=DIRECTION('',(0.0,1.0,0.0));
#177=DIRECTION('',(0.0,0.0,1.0));
#178=AXIS2_PLACEMENT_3D('',#175,#176,#177);
#179=CYLINDRICAL_SURFACE('',#178,37.500000000000789);
#180=CARTESIAN_POINT('',(0.0,23.999999999998440,37.500000000000703));
#181=VERTEX_POINT('',#180);
#182=CARTESIAN_POINT('',(0.0,23.999999999998440,0.0));
#183=DIRECTION('',(0.0,1.0,0.0));
#184=DIRECTION('',(0.0,0.0,1.0));
#185=AXIS2_PLACEMENT_3D('',#182,#183,#184);
#186=CIRCLE('',#185,37.500000000000703);
#187=EDGE_CURVE('',#181,#181,#186,.T.);
#188=ORIENTED_EDGE('',*,*,#187,.F.);
#189=EDGE_LOOP('',(#188));
#190=FACE_OUTER_BOUND('',#189,.T.);
#191=ORIENTED_EDGE('',*,*,#167,.T.);
#192=EDGE_LOOP('',(#191));
#193=FACE_BOUND('',#192,.T.);
#194=ADVANCED_FACE('',(#190,#193),#179,.T.);
#195=CARTESIAN_POINT('',(0.0,26.749999999998508,0.0));
#196=DIRECTION('',(0.0,-1.0,0.0));
#197=DIRECTION('',(0.0,0.0,1.0));
#198=AXIS2_PLACEMENT_3D('',#195,#196,#197);
#199=CONICAL_SURFACE('',#198,34.750000000000171,45.000000000004910);
#200=CARTESIAN_POINT('',(0.0,29.499999999998572,31.999999999999634));
#201=VERTEX_POINT('',#200);
#202=CARTESIAN_POINT('',(0.0,29.499999999998572,0.0));
#203=DIRECTION('',(0.0,1.0,0.0));
#204=DIRECTION('',(0.0,0.0,1.0));
#205=AXIS2_PLACEMENT_3D('',#202,#203,#204);
#206=CIRCLE('',#205,31.999999999999634);
#207=EDGE_CURVE('',#201,#201,#206,.T.);
#208=ORIENTED_EDGE('',*,*,#207,.F.);
#209=EDGE_LOOP('',(#208));
#210=FACE_OUTER_BOUND('',#209,.T.);
#211=ORIENTED_EDGE('',*,*,#187,.T.);
#212=EDGE_LOOP('',(#211));
#213=FACE_BOUND('',#212,.T.);
#214=ADVANCED_FACE('',(#210,#213),#199,.T.);
#215=CARTESIAN_POINT('',(0.0,109.651371946578540,0.0));
#216=DIRECTION('',(0.0,1.0,0.0));
#217=DIRECTION('',(0.0,0.0,1.0));
#218=AXIS2_PLACEMENT_3D('',#215,#216,#217);
#219=CYLINDRICAL_SURFACE('',#218,31.999999999999641);
#220=CARTESIAN_POINT('',(0.0,189.802743893158520,31.999999999999652));
#221=VERTEX_POINT('',#220);
#222=CARTESIAN_POINT('',(0.0,189.802743893158520,0.0));
#223=DIRECTION('',(0.0,1.0,0.0));
#224=DIRECTION('',(0.0,0.0,1.0));
#225=AXIS2_PLACEMENT_3D('',#222,#223,#224);
#226=CIRCLE('',#225,31.999999999999652);
#227=EDGE_CURVE('',#221,#221,#226,.T.);
#228=ORIENTED_EDGE('',*,*,#227,.F.);
#229=EDGE_LOOP('',(#228));
#230=FACE_OUTER_BOUND('',#229,.T.);
#231=ORIENTED_EDGE('',*,*,#207,.T.);
#232=EDGE_LOOP('',(#231));
#233=FACE_BOUND('',#232,.T.);
#234=ADVANCED_FACE('',(#230,#233),#219,.T.);
#235=CARTESIAN_POINT('',(0.0,189.802743893158240,0.0));
#236=DIRECTION('',(0.0,1.0,0.0));
#237=DIRECTION('',(0.0,0.0,1.0));
#238=AXIS2_PLACEMENT_3D('',#235,#236,#237);
#239=TOROIDAL_SURFACE('',#238,26.999999999999652,5.0);
#240=CARTESIAN_POINT('',(0.0,194.793006785572660,27.311891430776122));
#241=VERTEX_POINT('',#240);
#242=CARTESIAN_POINT('',(0.0,194.793006785572660,0.0));
#243=DIRECTION('',(0.0,1.0,0.0));
#244=DIRECTION('',(0.0,0.0,1.0));
#245=AXIS2_PLACEMENT_3D('',#242,#243,#244);
#246=CIRCLE('',#245,27.311891430776122);
#247=EDGE_CURVE('',#241,#241,#246,.T.);
#248=ORIENTED_EDGE('',*,*,#247,.F.);
#249=EDGE_LOOP('',(#248));
#250=FACE_OUTER_BOUND('',#249,.T.);
#251=ORIENTED_EDGE('',*,*,#227,.T.);
#252=EDGE_LOOP('',(#251));
#253=FACE_BOUND('',#252,.T.);
#254=ADVANCED_FACE('',(#250,#253),#239,.T.);
#255=CARTESIAN_POINT('',(0.0,195.646503392784500,0.0));
#256=DIRECTION('',(0.0,-1.0,0.0));
#257=DIRECTION('',(0.0,0.0,1.0));
#258=AXIS2_PLACEMENT_3D('',#255,#256,#257);
#259=CONICAL_SURFACE('',#258,13.655945715388025,86.423665625002215);
#260=ORIENTED_EDGE('',*,*,#247,.T.);
#261=EDGE_LOOP('',(#260));
#262=FACE_OUTER_BOUND('',#261,.T.);
#263=ADVANCED_FACE('',(#262),#259,.T.);
#264=CARTESIAN_POINT('',(0.0,-8.881784E-014,14.249999999999988));
#265=DIRECTION('',(0.0,-1.0,0.0));
#266=DIRECTION('',(0.0,0.0,-1.0));
#267=AXIS2_PLACEMENT_3D('',#264,#265,#266);
#268=PLANE('',#267);
#269=CARTESIAN_POINT('',(0.0,-1.776357E-013,28.499999999999975));
#270=VERTEX_POINT('',#269);
#271=CARTESIAN_POINT('',(0.0,-1.776357E-013,0.0));
#272=DIRECTION('',(0.0,1.0,0.0));
#273=DIRECTION('',(0.0,0.0,1.0));
#274=AXIS2_PLACEMENT_3D('',#271,#272,#273);
#275=CIRCLE('',#274,28.499999999999975);
#276=EDGE_CURVE('',#270,#270,#275,.T.);
#277=ORIENTED_EDGE('',*,*,#276,.F.);
#278=EDGE_LOOP('',(#277));
#279=FACE_OUTER_BOUND('',#278,.T.);
#280=ADVANCED_FACE('',(#279),#268,.T.);
#281=CARTESIAN_POINT('',(0.0,1.499999999999826,0.0));
#282=DIRECTION('',(0.0,1.0,0.0));
#283=DIRECTION('',(0.0,0.0,1.0));
#284=AXIS2_PLACEMENT_3D('',#281,#282,#283);
#285=CYLINDRICAL_SURFACE('',#284,28.499999999999982);
#286=ORIENTED_EDGE('',*,*,#130,.F.);
#287=EDGE_LOOP('',(#286));
#288=FACE_OUTER_BOUND('',#287,.T.);
#289=ORIENTED_EDGE('',*,*,#276,.T.);
#290=EDGE_LOOP('',(#289));
#291=FACE_BOUND('',#290,.T.);
#292=ADVANCED_FACE('',(#288,#291),#285,.T.);
#293=CLOSED_SHELL('',(#134,#154,#174,#194,#214,#234,#254,#263,#280,#292));
#294=MANIFOLD_SOLID_BREP('',#293);
#295=COLOUR_RGB('Default',0.752941012382507,0.752941012382507,0.752941012382507);
#296=FILL_AREA_STYLE_COLOUR('Default',#295);
#297=FILL_AREA_STYLE('Default',(#296));
#298=SURFACE_STYLE_FILL_AREA(#297);
#299=SURFACE_SIDE_STYLE('Default',(#298));
#300=SURFACE_STYLE_USAGE(.BOTH.,#299);
#301=PRESENTATION_STYLE_ASSIGNMENT((#300));
#302=STYLED_ITEM('',(#301),#294);
#303=MECHANICAL_DESIGN_GEOMETRIC_PRESENTATION_REPRESENTATION('',(#302,#609),#36);
#304=ADVANCED_BREP_SHAPE_REPRESENTATION('ABSR',(#294),#75);
#305=SHAPE_REPRESENTATION_RELATIONSHIP('SRR','None',#304,#80);
#306=AXIS2_PLACEMENT_3D('',#307,#308,#309);
#307=CARTESIAN_POINT('',(-7.873508E-022,68.000000000000142,-3.747089E-028));
#308=DIRECTION('',(-7.294229E-041,2.204544E-017,1.0));
#309=DIRECTION('',(1.0,0.0,7.294229E-041));
#310=NEXT_ASSEMBLY_USAGE_OCCURRENCE('calotta BBZS1 025:1','calotta BBZS1 025:1','calotta BBZS1 025:1',#12,#51,'calotta BBZS1 025:1');
#311=PRODUCT_DEFINITION_SHAPE('calotta BBZS1 025:1','calotta BBZS1 025:1',#310);
#312=ITEM_DEFINED_TRANSFORMATION('calotta BBZS1 025:1','calotta BBZS1 025:1',#76,#306);
#316=(REPRESENTATION_RELATIONSHIP('calotta BBZS1 025:1','calotta BBZS1 025:1',#80,#41)REPRESENTATION_RELATIONSHIP_WITH_TRANSFORMATION(#312)SHAPE_REPRESENTATION_RELATIONSHIP());
#317=CONTEXT_DEPENDENT_SHAPE_REPRESENTATION(#316,#311);
#318=APPLICATION_CONTEXT('automotive design');
#319=APPLICATION_PROTOCOL_DEFINITION('International Standard','automotive_design',2001,#318);
#320=PRODUCT_CONTEXT('',#318,'mechanical');
#321=PRODUCT('COR-INF-L-SAL-DN20','COR-INF-L-SAL-DN20',$,(#320));
#322=PRODUCT_RELATED_PRODUCT_CATEGORY('part',$,(#321));
#323=PRODUCT_DEFINITION_FORMATION('',$,#321);
#324=PRODUCT_DEFINITION_CONTEXT('part definition',#318,'design');
#325=PRODUCT_DEFINITION('',$,#323,#324);
#331=(NAMED_UNIT(*)PLANE_ANGLE_UNIT()SI_UNIT($,.RADIAN.));
#332=DIMENSIONAL_EXPONENTS(0.0,0.0,0.0,0.0,0.0,0.0,0.0);
#333=PLANE_ANGLE_MEASURE_WITH_UNIT(PLANE_ANGLE_MEASURE(0.017453292500000),#331);
#337=(CONVERSION_BASED_UNIT('DEGREE',#333)NAMED_UNIT(#332)PLANE_ANGLE_UNIT());
#341=(NAMED_UNIT(*)SI_UNIT($,.STERADIAN.)SOLID_ANGLE_UNIT());
#345=(LENGTH_UNIT()NAMED_UNIT(*)SI_UNIT(.MILLI.,.METRE.));
#347=UNCERTAINTY_MEASURE_WITH_UNIT(LENGTH_MEASURE(0.010000000000000),#345,'DISTANCE_ACCURACY_VALUE','');
#349=(GEOMETRIC_REPRESENTATION_CONTEXT(3)GLOBAL_UNCERTAINTY_ASSIGNED_CONTEXT((#347))GLOBAL_UNIT_ASSIGNED_CONTEXT((#337,#341,#345))REPRESENTATION_CONTEXT('None','None'));
#350=AXIS2_PLACEMENT_3D('',#351,#352,#353);
#351=CARTESIAN_POINT('',(0.0,0.0,0.0));
#352=DIRECTION('',(0.0,0.0,1.0));
#353=DIRECTION('',(1.0,0.0,0.0));
#354=SHAPE_REPRESENTATION('',(#350),#349);
#355=PRODUCT_DEFINITION_SHAPE('','',#325);
#356=SHAPE_DEFINITION_REPRESENTATION(#355,#354);
#362=(NAMED_UNIT(*)PLANE_ANGLE_UNIT()SI_UNIT($,.RADIAN.));
#363=DIMENSIONAL_EXPONENTS(0.0,0.0,0.0,0.0,0.0,0.0,0.0);
#364=PLANE_ANGLE_MEASURE_WITH_UNIT(PLANE_ANGLE_MEASURE(0.017453292500000),#362);
#368=(CONVERSION_BASED_UNIT('DEGREE',#364)NAMED_UNIT(#363)PLANE_ANGLE_UNIT());
#372=(NAMED_UNIT(*)SI_UNIT($,.STERADIAN.)SOLID_ANGLE_UNIT());
#376=(LENGTH_UNIT()NAMED_UNIT(*)SI_UNIT(.MILLI.,.METRE.));
#378=UNCERTAINTY_MEASURE_WITH_UNIT(LENGTH_MEASURE(0.000001000000000),#376,'DISTANCE_ACCURACY_VALUE','');
#380=(GEOMETRIC_REPRESENTATION_CONTEXT(3)GLOBAL_UNCERTAINTY_ASSIGNED_CONTEXT((#378))GLOBAL_UNIT_ASSIGNED_CONTEXT((#368,#372,#376))REPRESENTATION_CONTEXT('','3D'));
#381=CARTESIAN_POINT('',(0.0,35.0,0.0));
#382=DIRECTION('',(0.0,0.0,1.0));
#383=DIRECTION('',(-1.0,0.0,0.0));
#384=AXIS2_PLACEMENT_3D('',#381,#382,#383);
#385=CYLINDRICAL_SURFACE('',#384,11.500000000000002);
#386=CARTESIAN_POINT('',(11.500000000000002,35.0,50.0));
#387=VERTEX_POINT('',#386);
#388=CARTESIAN_POINT('',(0.0,35.0,50.0));
#389=DIRECTION('',(0.0,0.0,-1.0));
#390=DIRECTION('',(-1.0,0.0,0.0));
#391=AXIS2_PLACEMENT_3D('',#388,#389,#390);
#392=CIRCLE('',#391,11.500000000000002);
#393=EDGE_CURVE('',#387,#387,#392,.T.);
#394=ORIENTED_EDGE('',*,*,#393,.T.);
#395=EDGE_LOOP('',(#394));
#396=FACE_OUTER_BOUND('',#395,.T.);
#397=CARTESIAN_POINT('',(11.500000000000002,35.0,25.803342806698517));
#398=VERTEX_POINT('',#397);
#399=CARTESIAN_POINT('',(0.0,35.0,25.803342806698517));
#400=DIRECTION('',(0.0,0.0,-1.0));
#401=DIRECTION('',(-1.0,0.0,0.0));
#402=AXIS2_PLACEMENT_3D('',#399,#400,#401);
#403=CIRCLE('',#402,11.500000000000002);
#404=EDGE_CURVE('',#398,#398,#403,.T.);
#405=ORIENTED_EDGE('',*,*,#404,.F.);
#406=EDGE_LOOP('',(#405));
#407=FACE_BOUND('',#406,.T.);
#408=ADVANCED_FACE('',(#396,#407),#385,.T.);
#409=CARTESIAN_POINT('',(0.0,35.0,50.0));
#410=DIRECTION('',(0.0,0.0,-1.0));
#411=DIRECTION('',(-1.0,0.0,0.0));
#412=AXIS2_PLACEMENT_3D('',#409,#410,#411);
#413=PLANE('',#412);
#414=ORIENTED_EDGE('',*,*,#393,.F.);
#415=EDGE_LOOP('',(#414));
#416=FACE_OUTER_BOUND('',#415,.T.);
#417=ADVANCED_FACE('',(#416),#413,.F.);
#418=CARTESIAN_POINT('',(-5.749999999999997,0.0,0.0));
#419=DIRECTION('',(0.0,-1.0,0.0));
#420=DIRECTION('',(0.0,0.0,-1.0));
#421=AXIS2_PLACEMENT_3D('',#418,#419,#420);
#422=PLANE('',#421);
#423=CARTESIAN_POINT('',(-11.499999999999995,0.0,0.0));
#424=VERTEX_POINT('',#423);
#425=CARTESIAN_POINT('',(0.0,0.0,0.0));
#426=DIRECTION('',(0.0,1.0,0.0));
#427=DIRECTION('',(-1.0,0.0,0.0));
#428=AXIS2_PLACEMENT_3D('',#425,#426,#427);
#429=CIRCLE('',#428,11.499999999999995);
#430=EDGE_CURVE('',#424,#424,#429,.T.);
#431=ORIENTED_EDGE('',*,*,#430,.F.);
#432=EDGE_LOOP('',(#431));
#433=FACE_OUTER_BOUND('',#432,.T.);
#434=ADVANCED_FACE('',(#433),#422,.T.);
#435=CARTESIAN_POINT('',(0.0,7.500000000000036,0.0));
#436=DIRECTION('',(0.0,1.0,0.0));
#437=DIRECTION('',(-1.0,0.0,0.0));
#438=AXIS2_PLACEMENT_3D('',#435,#436,#437);
#439=CYLINDRICAL_SURFACE('',#438,11.500000000000004);
#440=CARTESIAN_POINT('',(-11.500000000000012,15.000000000000071,0.0));
#441=VERTEX_POINT('',#440);
#442=CARTESIAN_POINT('',(0.0,15.000000000000071,0.0));
#443=DIRECTION('',(0.0,1.0,0.0));
#444=DIRECTION('',(-1.0,0.0,0.0));
#445=AXIS2_PLACEMENT_3D('',#442,#443,#444);
#446=CIRCLE('',#445,11.500000000000012);
#447=EDGE_CURVE('',#441,#441,#446,.T.);
#448=ORIENTED_EDGE('',*,*,#447,.F.);
#449=EDGE_LOOP('',(#448));
#450=FACE_OUTER_BOUND('',#449,.T.);
#451=ORIENTED_EDGE('',*,*,#430,.T.);
#452=EDGE_LOOP('',(#451));
#453=FACE_BOUND('',#452,.T.);
#454=ADVANCED_FACE('',(#450,#453),#439,.T.);
#455=CARTESIAN_POINT('',(-17.500000000000000,15.000000000000036,0.0));
#456=DIRECTION('',(0.0,-1.0,0.0));
#457=DIRECTION('',(0.0,0.0,-1.0));
#458=AXIS2_PLACEMENT_3D('',#455,#456,#457);
#459=PLANE('',#458);
#460=CARTESIAN_POINT('',(-23.499999999999986,15.0,0.0));
#461=VERTEX_POINT('',#460);
#462=CARTESIAN_POINT('',(0.0,15.0,0.0));
#463=DIRECTION('',(0.0,1.0,0.0));
#464=DIRECTION('',(-1.0,0.0,0.0));
#465=AXIS2_PLACEMENT_3D('',#462,#463,#464);
#466=CIRCLE('',#465,23.499999999999986);
#467=EDGE_CURVE('',#461,#461,#466,.T.);
#468=ORIENTED_EDGE('',*,*,#467,.F.);
#469=EDGE_LOOP('',(#468));
#470=FACE_OUTER_BOUND('',#469,.T.);
#471=ORIENTED_EDGE('',*,*,#447,.T.);
#472=EDGE_LOOP('',(#471));
#473=FACE_BOUND('',#472,.T.);
#474=ADVANCED_FACE('',(#470,#473),#459,.T.);
#475=CARTESIAN_POINT('',(0.0,16.000000000000014,0.0));
#476=DIRECTION('',(0.0,1.0,0.0));
#477=DIRECTION('',(0.0,0.0,1.0));
#478=AXIS2_PLACEMENT_3D('',#475,#476,#477);
#479=TOROIDAL_SURFACE('',#478,23.499999999999986,1.0);
#480=CARTESIAN_POINT('',(-24.500000000000000,16.000000000000014,0.0));
#481=VERTEX_POINT('',#480);
#482=CARTESIAN_POINT('',(0.0,16.000000000000014,0.0));
#483=DIRECTION('',(0.0,1.0,0.0));
#484=DIRECTION('',(-1.0,0.0,0.0));
#485=AXIS2_PLACEMENT_3D('',#482,#483,#484);
#486=CIRCLE('',#485,24.500000000000000);
#487=EDGE_CURVE('',#481,#481,#486,.T.);
#488=ORIENTED_EDGE('',*,*,#487,.F.);
#489=EDGE_LOOP('',(#488));
#490=FACE_OUTER_BOUND('',#489,.T.);
#491=ORIENTED_EDGE('',*,*,#467,.T.);
#492=EDGE_LOOP('',(#491));
#493=FACE_BOUND('',#492,.T.);
#494=ADVANCED_FACE('',(#490,#493),#479,.T.);
#495=CARTESIAN_POINT('',(0.0,18.467708410482384,0.0));
#496=DIRECTION('',(0.0,1.0,0.0));
#497=DIRECTION('',(-1.0,0.0,0.0));
#498=AXIS2_PLACEMENT_3D('',#495,#496,#497);
#499=CYLINDRICAL_SURFACE('',#498,24.499999999999972);
#500=CARTESIAN_POINT('',(-24.499999999999940,20.935416820964747,0.0));
#501=VERTEX_POINT('',#500);
#502=CARTESIAN_POINT('',(0.0,20.935416820964747,0.0));
#503=DIRECTION('',(0.0,1.0,0.0));
#504=DIRECTION('',(-1.0,0.0,0.0));
#505=AXIS2_PLACEMENT_3D('',#502,#503,#504);
#506=CIRCLE('',#505,24.499999999999940);
#507=EDGE_CURVE('',#501,#501,#506,.T.);
#508=ORIENTED_EDGE('',*,*,#507,.F.);
#509=EDGE_LOOP('',(#508));
#510=FACE_OUTER_BOUND('',#509,.T.);
#511=ORIENTED_EDGE('',*,*,#487,.T.);
#512=EDGE_LOOP('',(#511));
#513=FACE_BOUND('',#512,.T.);
#514=ADVANCED_FACE('',(#510,#513),#499,.T.);
#515=CARTESIAN_POINT('',(0.0,35.0,0.0));
#516=DIRECTION('',(0.0,0.0,1.0));
#517=DIRECTION('',(1.0,0.0,0.0));
#518=AXIS2_PLACEMENT_3D('',#515,#516,#517);
#519=SPHERICAL_SURFACE('',#518,28.250000000000000);
#520=ORIENTED_EDGE('',*,*,#404,.T.);
#521=EDGE_LOOP('',(#520));
#522=FACE_OUTER_BOUND('',#521,.T.);
#523=ORIENTED_EDGE('',*,*,#507,.T.);
#524=EDGE_LOOP('',(#523));
#525=FACE_BOUND('',#524,.T.);
#526=CARTESIAN_POINT('',(-24.499999999999964,49.064583179035210,0.0));
#527=VERTEX_POINT('',#526);
#528=CARTESIAN_POINT('',(0.0,49.064583179035210,0.0));
#529=DIRECTION('',(0.0,1.0,0.0));
#530=DIRECTION('',(-1.0,0.0,0.0));
#531=AXIS2_PLACEMENT_3D('',#528,#529,#530);
#532=CIRCLE('',#531,24.499999999999964);
#533=EDGE_CURVE('',#527,#527,#532,.T.);
#534=ORIENTED_EDGE('',*,*,#533,.F.);
#535=EDGE_LOOP('',(#534));
#536=FACE_BOUND('',#535,.T.);
#537=ADVANCED_FACE('',(#522,#525,#536),#519,.T.);
#538=CARTESIAN_POINT('',(0.0,53.804351120985245,0.0));
#539=DIRECTION('',(0.0,1.0,0.0));
#540=DIRECTION('',(-1.0,0.0,0.0));
#541=AXIS2_PLACEMENT_3D('',#538,#539,#540);
#542=CYLINDRICAL_SURFACE('',#541,24.499999999999975);
#543=CARTESIAN_POINT('',(-24.499999999999986,58.544119062935280,0.0));
#544=VERTEX_POINT('',#543);
#545=CARTESIAN_POINT('',(0.0,58.544119062935280,0.0));
#546=DIRECTION('',(0.0,1.0,0.0));
#547=DIRECTION('',(-1.0,0.0,0.0));
#548=AXIS2_PLACEMENT_3D('',#545,#546,#547);
#549=CIRCLE('',#548,24.499999999999986);
#550=EDGE_CURVE('',#544,#544,#549,.T.);
#551=ORIENTED_EDGE('',*,*,#550,.F.);
#552=EDGE_LOOP('',(#551));
#553=FACE_OUTER_BOUND('',#552,.T.);
#554=ORIENTED_EDGE('',*,*,#533,.T.);
#555=EDGE_LOOP('',(#554));
#556=FACE_BOUND('',#555,.T.);
#557=ADVANCED_FACE('',(#553,#556),#542,.T.);
#558=CARTESIAN_POINT('',(0.0,59.272059531467661,0.0));
#559=DIRECTION('',(0.0,1.0,0.0));
#560=DIRECTION('',(-1.0,0.0,0.0));
#561=AXIS2_PLACEMENT_3D('',#558,#559,#560);
#562=CONICAL_SURFACE('',#561,26.499999999999986,70.000000000000696);
#563=CARTESIAN_POINT('',(-28.499999999999986,60.000000000000036,0.0));
#564=VERTEX_POINT('',#563);
#565=CARTESIAN_POINT('',(0.0,60.000000000000036,0.0));
#566=DIRECTION('',(0.0,1.0,0.0));
#567=DIRECTION('',(-1.0,0.0,0.0));
#568=AXIS2_PLACEMENT_3D('',#565,#566,#567);
#569=CIRCLE('',#568,28.499999999999986);
#570=EDGE_CURVE('',#564,#564,#569,.T.);
#571=ORIENTED_EDGE('',*,*,#570,.F.);
#572=EDGE_LOOP('',(#571));
#573=FACE_OUTER_BOUND('',#572,.T.);
#574=ORIENTED_EDGE('',*,*,#550,.T.);
#575=EDGE_LOOP('',(#574));
#576=FACE_BOUND('',#575,.T.);
#577=ADVANCED_FACE('',(#573,#576),#562,.T.);
#578=CARTESIAN_POINT('',(0.0,61.500000000000043,0.0));
#579=DIRECTION('',(0.0,1.0,0.0));
#580=DIRECTION('',(-1.0,0.0,0.0));
#581=AXIS2_PLACEMENT_3D('',#578,#579,#580);
#582=CYLINDRICAL_SURFACE('',#581,28.499999999999986);
#583=CARTESIAN_POINT('',(-28.499999999999986,63.000000000000043,0.0));
#584=VERTEX_POINT('',#583);
#585=CARTESIAN_POINT('',(0.0,63.000000000000043,0.0));
#586=DIRECTION('',(0.0,1.0,0.0));
#587=DIRECTION('',(-1.0,0.0,0.0));
#588=AXIS2_PLACEMENT_3D('',#585,#586,#587);
#589=CIRCLE('',#588,28.499999999999986);
#590=EDGE_CURVE('',#584,#584,#589,.T.);
#591=ORIENTED_EDGE('',*,*,#590,.F.);
#592=EDGE_LOOP('',(#591));
#593=FACE_OUTER_BOUND('',#592,.T.);
#594=ORIENTED_EDGE('',*,*,#570,.T.);
#595=EDGE_LOOP('',(#594));
#596=FACE_BOUND('',#595,.T.);
#597=ADVANCED_FACE('',(#593,#596),#582,.T.);
#598=CARTESIAN_POINT('',(-14.249999999999993,63.000000000000043,0.0));
#599=DIRECTION('',(0.0,1.0,0.0));
#600=DIRECTION('',(0.0,0.0,1.0));
#601=AXIS2_PLACEMENT_3D('',#598,#599,#600);
#602=PLANE('',#601);
#603=ORIENTED_EDGE('',*,*,#590,.T.);
#604=EDGE_LOOP('',(#603));
#605=FACE_OUTER_BOUND('',#604,.T.);
#606=ADVANCED_FACE('',(#605),#602,.T.);
#607=CLOSED_SHELL('',(#408,#417,#434,#454,#474,#494,#514,#537,#557,#577,#597,#606));
#608=MANIFOLD_SOLID_BREP('',#607);
#609=STYLED_ITEM('',(#301),#608);
#610=ADVANCED_BREP_SHAPE_REPRESENTATION('ABSR',(#608),#349);
#611=SHAPE_REPRESENTATION_RELATIONSHIP('SRR','None',#610,#354);
#612=AXIS2_PLACEMENT_3D('',#613,#614,#615);
#613=CARTESIAN_POINT('',(0.0,4.999999999999929,1.183279E-028));
#614=DIRECTION('',(1.817171E-100,1.577722E-030,1.0));
#615=DIRECTION('',(1.0,0.0,-1.817171E-100));
#616=NEXT_ASSEMBLY_USAGE_OCCURRENCE('COR-INF-L-SAL-DN20:1','COR-INF-L-SAL-DN20:1','COR-INF-L-SAL-DN20:1',#12,#325,'COR-INF-L-SAL-DN20:1');
#617=PRODUCT_DEFINITION_SHAPE('COR-INF-L-SAL-DN20:1','COR-INF-L-SAL-DN20:1',#616);
#618=ITEM_DEFINED_TRANSFORMATION('COR-INF-L-SAL-DN20:1','COR-INF-L-SAL-DN20:1',#350,#612);
#622=(REPRESENTATION_RELATIONSHIP('COR-INF-L-SAL-DN20:1','COR-INF-L-SAL-DN20:1',#354,#41)REPRESENTATION_RELATIONSHIP_WITH_TRANSFORMATION(#618)SHAPE_REPRESENTATION_RELATIONSHIP());
#623=CONTEXT_DEPENDENT_SHAPE_REPRESENTATION(#622,#617);
ENDSEC;
END-ISO-10303-21;
